Metallica - St Anger Chords & Tabs

 

St Anger Chords & Tabs

Metallica Chords & Tabs

Version: 2 Type: Tab 1 rating
1 star 2 stars 3 stars 4 stars 5 stars
comments

St Anger Tab

   
Tabbed by adrian and some friends

 Main intro riff                                                                        
D||----------------------------------|
A||----------------------------------|
F||----------------------------------|
C||------------------------------3-3-|
G||----------3-2-0-3-2-0---------3-3-|
C||--0-2-3-0-3-2-0-3-2-0-0-2-3-4-----|

 Played at various times during intro
 and just before quiter bit
|----------------------------------|
|----------------------------------|
|----------------------------------|
|----------------------------------|
|----------3-2-0-3-2-0-3-2-0-3-2-0-|
|--0-2-3-0-3-2-0-3-2-0-3-2-0-3-2-0-|

 Clean guitar                                                     
|------------------------|-----------------------------|
|------------------------|-----------------------------|
|------------------------|-----------------------------|
|--12------16----12------|----------12-------12-----12-|
|------------------------|------10---------------------|
|------------------------|--10----------8--8-----7-----|
 "Saint Anger round my neck, saint anger....."

                                                                             
||--------------------------|-----------------------------||
||--------------------------|-----------------------------||
||--------------------------|-----------------------------||
||--12--------10------------|----------12--------12----12-||  X 3
||--------12--------12------|------10---------------------||
||--------------------------|--10----------8--8-----7-----||

 Gets heavy again..                                                                        
|-----|-----------------------|		|-----|
|-----|-----------------------|		|-----|
|-----|------------10----9----|		|-----|
|-----|------------x-----x----|	X4	|-----|
|--0--|--10--------8-----7----|		|--0--|
|--0--|--10--------8-----7----|		|--0--|
 "(You flush it out..) Saint Anger round my neck, he never gest respect..."

 Interlude
|------------------------|---------------------|
|------------------------|---------------------|
|------------------------|--10----9------------|
|------------------------|--x-----x------------|
|--0-0---0-0---10--------|--8-----7------------|
|--0-0---0-0---10--------|--8-----7------------|
                                                 
                                   
|----------------------------------|
|----------------------------------|
|----------------------------------|
|--7-7-7-7-7-7-7-7-7-7-7-7-7-7-7-7-|
|--5-5-5-5-5-5-5-5-5-5-5-5-5-5-5-5-|
|--0-0-0-0-0-0-0-0-0-0-0-0-0-0-0-0-|
 "Fuck it all and no regrets..."

                                                            
|----------------------------------------------|
|----------------------------------------------|
|--------------------------10-10-10-10-9-9-9-9-|
|--------------------------x--x--x--x--x-x-x-x-|
|--10-10-10-10-10-10-10-10-8--8--8--8--7-7-7-7-|
|--10-10-10-10-10-10-10-10-8--8--8--8--7-7-7-7-|
 "I hit the lights on these dark sets..."

 "I feel my world shake..."
 "I'm madly in anger with you.."  


Kirk during interlude and chorus:                          
---------------------------------------------------------------------------------|
---------------------------------13-13-13-13-13-13-13-13-11-11-11-11-10-10-10-10-|
-7-7-7-7-7-7-7-7-7-7-7-7-7-7-7-7-12-12-12-12-12-12-12-12-10-10-10-10-9--9--9--9--|
-7-7-7-7-7-7-7-7-7-7-7-7-7-7-7-7-------------------------------------------------|
---------------------------------------------------------------------------------|
---------------------------------------------------------------------------------|
                                                   

 This part takes you back to the beginning of the loop                                                              
|----|--------------------------|----------------------------------||
|----|--------------------------|----------------------------------||
|----|--------------------------|----------------------------------||
|----|--------------------------|------------------------------3-3-||
|-12-|--0-0---0-0---0-0---0-0---|----------3-2-0-3-2-0-------4-3-3-||
|-12-|--0-0---0-0---0-0---0-0---|--0-2-3-0-3-2-0-3-2-0-0-2-3-4-----||

Thats all the riffs there is to this song, theres a lot of 
different vocal melodies over the same riffs, just
figure out what goes with what, enjoy and rock on m/


Downloaded from www.taborama.com

================================================================================


Metallica - St. Anger 
By berni any questions E-mail me at isidro_loko@yahoo.com
Tuning 
CGCFAD


G|-------------------------1-1-1|
C|-0-0-0-h1p0h3p0h1p0-----------|
   ................P.M........................

C|-------------------------3-3-3|
G|-------------------------1-1-1|
C|--0-0-0-h1p0h3p0h1p0----------|
Heavy Distortion and Palm Muting
	
F----------10-10h12p-10/9/10--------|
C-------12---------------------12---|	(Chords here buts thats all i can do for 
G-----0----------------------------0|    now guys i think there (F and G# or G,A#)
St. Anger round my neck ,St. Anger round my neck....

G|-0---10--8--7--0----| 
C|-0---10--8--7--0----| 
(you flush it out, you flush it out)St. Anger round my neck....

He never gets respect...... 
G-0-0-0-----10---8--7-0-|
C-0-0-0-----10---8--7-0-|


C|-7-7-7-7-7-7-7-7-7-7--12-12-12-12-12--10--10--10--9-9-9| 
G|-5-5-5-5-5-5-5-5-5-5--10-10-10-10-10--8---8---8---7-7-7|
C|-0-0-0-0-0-0-0-0-0-0--10-10-10-10-10--8---8---8---7-7-7|
 #uck it all and no regrets, I hit the lights on these dark sets....
     (repeat same riff during "Im madly in anger with you")

C|-7------------------------| 
G|-5-----0-0-0-0------------| 
C|-0-----0-0-0-0------------| 
 Im madly in anger with you...


C|-------------------------3-3-3|
G|-------------------------1-1-1|
C|-0-0-0-h3p0h2p0h3p0-----------|
 Heavy Distortion and Palm Muting

F----------10-10h12p-10/9/10--------|	(Chords here buts thats all i can do for 
C-------12---------------------12---|   now guys i think there (F and G# or G,A#)
G-----0----------------------------0|
St. Anger round my neck ,St. Anger round my neck....

G|-0---10--8--7--0----| 
C|-0---10--8--7--0----| 
(you flush it out, you flush it out)St. Anger round my neck....

He never gets respect...... 
G-0-0-0-----10---8--7-0-|
C-0-0-0-----10---8--7-0-|

C|-7-7-7-7-7-7-7-7-7-7--12-12-12-12-12--10--10--10--9-9-9| 
G|-5-5-5-5-5-5-5-5-5-5--10-10-10-10-10--8---8---8---7-7-7|
C|-0-0-0-0-0-0-0-0-0-0--10-10-10-10-10--8---8---8---7-7-7|
 #uck it all and no regrets, I hit the lights on these dark sets....
     (repeat same riff during "Im madly in anger with you")


C|-7------------------------| 
G|-5-----0-0-0-0------------| 
C|-0-----0-0-0-0------------| 
 Im madly in anger with you...

C|-------------------------3-3-3|
G|-------------------------1-1-1|
C|-0-0-0-h1p0h3p0h1p0-----------|
 Heavy Distortion and Palm Muting
And i want my anger to be healthy, and i want my anger just for me....

C|-7-7-7-7-7-7-7-7-7-7--12-12-12-12-12--10--10--10--9-9-9| 
G|-5-5-5-5-5-5-5-5-5-5--10-10-10-10-10--8---8---8---7-7-7|
C|-0-0-0-0-0-0-0-0-0-0--10-10-10-10-10--8---8---8---7-7-7|
 #uck it all and no regrets, I hit the lights on these dark sets....
     (repeat same riff during "Im madly in anger with you")

C|-7------------------------| 
G|-5-----0-0-0-0------------| 
C|-0-----0-0-0-0------------| 
 Im madly in anger with you...

C|-------------------------3-3-3|
G|-------------------------1-1-1|
C|-0-0-0-h1p0h3p0h1p0-----------|
 Heavy Distortion and Palm Muting

well duders thats all i have right now and i hope its good i want some 
feedback on how it goes thanx guys 


================================================================================


Metallica
album: st. anger
song: st. anger
transcribed by isdro nunez
hester_ilizado@hotmail.com


   . = palm mute
   / = slide up
   \ = slide down
   ~ = vibrato
   h = hammer on
   p = pull off
  fb = full bend
  hb = half bend
 fbr = full bend then release
 hbr = half bend then release
(17) = ghost note


tune down 3 steps 
           
Eb|-------------------------------------------------------|
Bb|-------------------------------------------------------|
F#|-------------------------------------------------------|
C#|-------------------------------------------------------|
G#|-x-x--x-x--x-x--x-x--x-x--x-x--x-x--x-x--x-x--x-x--x-x-|
C#|-x-x--x-x--x-x--x-x--x-x--x-x--x-x--x-x--x-x--x-x--x-x-|

Eb|-----------------------------------------------------------|
Bb|-----------------------------------------------------------|
F#|-----------------------------------------------------------|
C#|-----------------------------------------------------------|
G#|-----------------------------x-x--x-x--x-x--x-x--x-x--x-x--|
C#|-3-1-0--2-1-0--1-0-0--3-1-0--x-x--x-x--x-x--x-x--x-x--x-x--|


Eb|---------------------------------------------|
Bb|---------------------------------------------|
F#|---------------------------------------------|
C#|---------------------------------------------|
G#|---------------x-x--x-x--x-x--x-x--x-x--x-x--|
C#|-3-1-0--2-1-0--x-x--x-x--x-x--x-x--x-x--x-x--|


Eb|---------------------------------------------|
Bb|---------------------------------------------|
F#|---------------------------------------------|
C#|---------------------------------------------|
G#|---------------x-x--x-x--x-x--x-x--x-x--x-x--|
C#|-3-1-0--2-1-0--x-x--x-x--x-x--x-x--x-x--x-x--|

Eb|---------------------------------------------|
Bb|---------------------------------------------|
F#|---------------------------------------------|
C#|------------------------------------11-11-11-|
G#|-----------------------------10-9-8----------|
C#|-3-1-0--2-1-0--1-0-0--3-1-0------------------|

Eb|--------------------------------------|
Bb|--------------------------------------|
F#|--------------------------------------|
C#|-----------------------------11-11-11-|
G#|-----------------------------9--9--9--|
C#|-3-1-0--2-1-0--1-0-0--3-1-0-----------|

Eb|------------------------------------|
Bb|------------------------------------|
F#|------------------------------------|
C#|---------------------------11-11-11-|
G#|---------------------------9--9--9--|
C#|-0-000-000-000-000-000-000----------|


Eb|-----------------------------------|
Bb|-----------------------------------|
F#|-----------------------------------|
C#|-----------------------------------|
G#|-----------------------------------|
C#|-3-1-0--2-1-0--1-0-0--3-1-0--2-0-0-|

verse
Eb|--------------------------------------------------------------------------------|
Bb|-------8----8---------6---------4------------8------8--------6---------4--------|
F#|-----8--------8---------6---------4------------8------8--------6---------4------|
C#|---8------8---------6---------4-----4/8----8------8--------6---------4------4/8-|
G#|-6----------------4---------2------------6---------------4---------2------------|
C#|--------------------------------------------------------------------------------|

Eb|-----------------------------------------|
Bb|------8------8--------6---------4--------|
F#|--------8------8--------6---------4------|
C#|----8------8--------6---------4------4/8-|
G#|--6---------------4---------2------------|
C#|-----------------------------------------|

Gt1
Eb|-------------------------------------------------------------------------------|
Bb|-------------------------------------------------------------------------------|
F#|-------------------------------------------------------------------------------|
C#|-8-8-8-8-8-8-8-8-8-8-8-8-8-8-8--11-11-11-11-11-11-11-11-11-9-9-9-9-9-9-9-9-9-9-|
G#|-6-6-6-6-6-6-6-6-6-6-6-6-6-6-6--9--9--9--9--9--9--9--9--9--7-7-7-7-7-7-7-7-7-7-|
C#|-------------------------------------------------------------------------------|
Gt2
Eb|----------------------------------------------------------------------------------------|
Bb|-16-16-16-16-16-16-16-16-16-16--13-13-13-13-13-13-13-13-13-12-12-12-12-12-12-12-11-11-12|
F#|-15-15-15-15-15-15-15-15-15-15--12-12-12-12-12-12-12-12-12-11-11-11-11-11-11-11-10-10-11|
C#|----------------------------------------------------------------------------------------|
G#|----------------------------------------------------------------------------------------|
C#|----------------------------------------------------------------------------------------|

Eb|-----------------------------------------|
Bb|-16-16-16-16-16-16-16-16-16-16-----------|
F#|-15-15-15-15-15-15-15-15-15-15-----------|
C#|-----------------------------------------|
G#|--------------------------------2-2--2-2-|
C#|--------------------------------0-0--0-0-|

Eb|--------------|
Bb|--------------|
F#|--------------|
C#|-11---9---8---|
G#|-9----7---6---|
C#|--------------|

Eb|----------------------------------------------------------------------------------------|
Bb|----------------------------------------------------------------------------------------|
F#|----------------------------------------------------------------------------------------|
C#|-13-13-13-13-13-13-13-13-13-13-13--11-11-11-11-11-11-11-11--9-9-9-9-9-9-9-9-9-9--8-8-9-9|
G#|-11-11-11-11-11-11-11-11-11-11-11--9--9--9--9--9--9--9--9---7-7-7-7-7-7-7-7-7-7--6-6-7-7|
C#|----------------------------------------------------------------------------------------|
[ Tab from: http://www.guitartabs.cc/tabs/m/metallica/st_anger_tab_ver_2.html ]
Gt2
Eb|----------------------------------------------------------------------------------------|
Bb|-16-16-16-16-16-16-16-16-16-16--13-13-13-13-13-13-13-13-13-12-12-12-12-12-12-12-11-11-12|
F#|-15-15-15-15-15-15-15-15-15-15--12-12-12-12-12-12-12-12-12-11-11-11-11-11-11-11-10-10-11|
C#|----------------------------------------------------------------------------------------|
G#|----------------------------------------------------------------------------------------|
C#|----------------------------------------------------------------------------------------|

Eb|------------------------------------------------------|
Bb|-16-16-16-16-16-16-16-16-16-16------------------------|
F#|-15-15-15-15-15-15-15-15-15-15------------------------|
C#|------------------------------------------------------|
G#|--------------------------------2-2--2-2--2-2--2-2--2-|
C#|--------------------------------0-0--0-0--0-0--0-0--0-|

Eb|-------------------------------|
Bb|-------------------------------|
F#|-------------------------------|
C#|-------------------------4-4-4-|
G#|---------3-----3---------2-2-2-|
C#|-0-0-0-0-1-0-0-1-0-0-0-0-------|

Eb|-----------------------------------|
Bb|-----------------------------------|
F#|-----------------------------------|
C#|-----------------------------4-4-4-|
G#|-----------------------------2-2-2-|
C#|-3-1-0--2-1-0--1-0-0--3-1-0--------|


Eb|-----------------------------------|
Bb|-----------------------------------|
F#|-----------------------------------|
C#|-----------------------------------|
G#|-----------------------------------|
C#|-3-1-0--2-1-0--1-0-0--3-1-0--2-0-0-|


verse
Eb|--------------------------------------------------------------------------------|
Bb|-------8----8---------6---------4------------8------8--------6---------4--------|
F#|-----8--------8---------6---------4------------8------8--------6---------4------|
C#|---8------8---------6---------4-----4/8----8------8--------6---------4------4/8-|
G#|-6----------------4---------2------------6---------------4---------2------------|
C#|--------------------------------------------------------------------------------|

Eb|-----------------------------------------|
Bb|------8------8--------6---------4--------|
F#|--------8------8--------6---------4------|
C#|----8------8--------6---------4------4/8-|
G#|--6---------------4---------2------------|
C#|-----------------------------------------|

Gt1
Eb|-------------------------------------------------------------------------------|
Bb|-------------------------------------------------------------------------------|
F#|-------------------------------------------------------------------------------|
C#|-8-8-8-8-8-8-8-8-8-8-8-8-8-8-8--11-11-11-11-11-11-11-11-11-9-9-9-9-9-9-9-9-9-9-|
G#|-6-6-6-6-6-6-6-6-6-6-6-6-6-6-6--9--9--9--9--9--9--9--9--9--7-7-7-7-7-7-7-7-7-7-|
C#|-------------------------------------------------------------------------------|
Gt2
Eb|----------------------------------------------------------------------------------------|
Bb|-16-16-16-16-16-16-16-16-16-16--13-13-13-13-13-13-13-13-13-12-12-12-12-12-12-12-11-11-12|
F#|-15-15-15-15-15-15-15-15-15-15--12-12-12-12-12-12-12-12-12-11-11-11-11-11-11-11-10-10-11|
C#|----------------------------------------------------------------------------------------|
G#|----------------------------------------------------------------------------------------|
C#|----------------------------------------------------------------------------------------|

Eb|-----------------------------------------|
Bb|-16-16-16-16-16-16-16-16-16-16-----------|
F#|-15-15-15-15-15-15-15-15-15-15-----------|
C#|-----------------------------------------|
G#|--------------------------------2-2--2-2-|
C#|--------------------------------0-0--0-0-|

Eb|--------------|
Bb|--------------|
F#|--------------|
C#|-11---9---8---|
G#|-9----7---6---|
C#|--------------|

Eb|----------------------------------------------------------------------------------------|
Bb|----------------------------------------------------------------------------------------|
F#|----------------------------------------------------------------------------------------|
C#|-13-13-13-13-13-13-13-13-13-13-13--11-11-11-11-11-11-11-11--9-9-9-9-9-9-9-9-9-9--8-8-9-9|
G#|-11-11-11-11-11-11-11-11-11-11-11--9--9--9--9--9--9--9--9---7-7-7-7-7-7-7-7-7-7--6-6-7-7|
C#|----------------------------------------------------------------------------------------|

Gt2
Eb|----------------------------------------------------------------------------------------|
Bb|-16-16-16-16-16-16-16-16-16-16--13-13-13-13-13-13-13-13-13-12-12-12-12-12-12-12-11-11-12|
F#|-15-15-15-15-15-15-15-15-15-15--12-12-12-12-12-12-12-12-12-11-11-11-11-11-11-11-10-10-11|
C#|----------------------------------------------------------------------------------------|
G#|----------------------------------------------------------------------------------------|
C#|----------------------------------------------------------------------------------------|

Eb|------------------------------------------------------|
Bb|-16-16-16-16-16-16-16-16-16-16------------------------|
F#|-15-15-15-15-15-15-15-15-15-15------------------------|
C#|------------------------------------------------------|
G#|--------------------------------2-2--2-2--2-2--2-2--2-|
C#|--------------------------------0-0--0-0--0-0--0-0--0-|

Eb|-------------------------------|
Bb|-------------------------------|
F#|-------------------------------|
C#|-------------------------4-4-4-|
G#|---------3-----3---------2-2-2-|
C#|-0-0-0-0-1-0-0-1-0-0-0-0-------|


Eb|-----------------------------------|
Bb|-----------------------------------|
F#|-----------------------------------|
C#|-----------------------------4-4-4-|
G#|-----------------------------2-2-2-|
C#|-3-1-0--2-1-0--1-0-0--3-1-0--------|


Eb|-----------------------------------|
Bb|-----------------------------------|
F#|-----------------------------------|
C#|-----------------------------------|
G#|-----------------------------------|
C#|-3-1-0--2-1-0--1-0-0--3-1-0--2-0-0-|

Eb|-----------------------------------|
Bb|-----------------------------------|
F#|-----------------------------------|
C#|-----------------------------4-4-4-|
G#|-----------------------------2-2-2-|
C#|-3-1-0--2-1-0--1-0-0--3-1-0--------|


Eb|----------------------------------------------------------------------------------------|
Bb|----------------------------------------------------------------------------------------|
F#|----------------------------------------------------------------------------------------|
C#|-13-13-13-13-13-13-13-13-13-13-13--11-11-11-11-11-11-11-11--9-9-9-9-9-9-9-9-9-9--8-8-9-9|
G#|-11-11-11-11-11-11-11-11-11-11-11--9--9--9--9--9--9--9--9---7-7-7-7-7-7-7-7-7-7--6-6-7-7|
C#|----------------------------------------------------------------------------------------|

Gt2
Eb|----------------------------------------------------------------------------------------|
Bb|-16-16-16-16-16-16-16-16-16-16--13-13-13-13-13-13-13-13-13-12-12-12-12-12-12-12-11-11-12|
F#|-15-15-15-15-15-15-15-15-15-15--12-12-12-12-12-12-12-12-12-11-11-11-11-11-11-11-10-10-11|
C#|----------------------------------------------------------------------------------------|
G#|----------------------------------------------------------------------------------------|
C#|----------------------------------------------------------------------------------------|

Eb|------------------------------------------------------|
Bb|-16-16-16-16-16-16-16-16-16-16------------------------|
F#|-15-15-15-15-15-15-15-15-15-15------------------------|
C#|------------------------------------------------------|
G#|--------------------------------2-2--2-2--2-2--2-2--2-|
C#|--------------------------------0-0--0-0--0-0--0-0--0-|

Eb|-------------------------------|
Bb|-------------------------------|
F#|-------------------------------|
C#|-------------------------4-4-4-|
G#|---------3-----3---------2-2-2-|
C#|-0-0-0-0-1-0-0-1-0-0-0-0-------|

Eb|----------|
Bb|----------|
F#|----------|
C#|----------|
G#|-2--------|
C#|-0--------|

made in hermosillo son.





================================================================================


Metallica - St Anger
Submitted By: erik
EMail: dr_gonzo_inc@hotmail.com


This is a cool song of the new album. 
If u get to watch the video u can see in the chorus they play a fast
up and down strumming pattern. This isn’t 100% but 
its close and since no one else has tabbed it I thought I would.

Tune your guitar down a half step then drop the E
                               

Db Ab Db Gb Bb Eb     I think !!


Key
P = pull off


Intro after the bass      
 X 7
|-------------------------------------------------------------| 
|-------------------------------------------------------------|
|--------------------------------------------------4-4-4------|
|---1-p-0--0----1-p-0--0---1-p-0--0----1-p-0--0----4-4-4------|
|---1-p-0--0----1-p-0--0---1-p-0--0----1-p-0--0----2-2-2------|
|---1-p-0--0----1-p-0--0---1-p-0--0----1-p-0--0---------------|

X 1
|---------------------------------------------------| 
|---------------------------------------------------|
|---------------------------------------------------|
|---1-p-0--0----1-p-0--0---1-p-0--0----1-p-0--0-----|
|---1-p-0--0----1-p-0--0---1-p-0--0----1-p-0--0-----|
|---1-p-0--0----1-p-0--0---1-p-0--0----1-p-0--0-----|


Verse   x 8   (Acoustic guitar)
|-------------------------------------------------| 
|-------------------------------------------------|
|-------------------------------------------------|
|---------6---6----------4------4-----------------|
|--4--4-4---4-----2--2-2----2------------7------6-|
|-------------------------------------7—------6---|

Saint Anger 'round my neck
Saint Anger 'round my neck
He never gets respect
Saint Anger 'round my neck

For the last 4 times of the verse    (light distortion)
|-------------------------------------------------------------------------| 
|-------------------------------------------------------------------------|
|-------------------------------------------------------------------------|
|--6-6-6-6---6-6-6-6--4-4-4-4--4-4-4-4------------------------------------|
|--4-4-4-4---4-4-4-4--2-2-2-2--2-2-2-2--7-7-7--7-7-77--6-6-6-6--6-6-6-6---|
|---------------------------------------7-7-7--7-7-77--6-6-6-6--6-6-6-6---|

(You flush it out, You flush it out)
Saint Anger 'round my neck
(You flush it out, You flush it out)
He never gets respect
(You flush it out, You flush it out)
Saint Anger 'round my neck
(You flush it out, You flush it out)
He never gets respect



James Guitar Part for the chorus  (heavy distortion)

|--------------------------------------------------------------------------------| 
|--------------------------------------------------------------------------------|
|-6-6-6-6-6-6-6-6-6-6-6--4-4-4-4-4-4-4-4-4-4-4-----------------------------------|
|-6-6-6-6-6-6-6-6-6-6-6--4-4-4-4-4-4-4-4-4-4-4-7-7-7-7-7-6-6-6-6-6-6-6-6-6-6-6-6-|
|-4-4-4-4-4-4-4-4-4-4-4--2-2-2-2-2-2-2-2-2-2-2-7-7-7-7-7-6-6-6-6-6-6-6-6-6-6-6-6-|
|----------------------------------------------7-7-7-7-7-6-6-6-6-6-6-6-6-6-6-6-6-|

Kirk Guitar Part for the chorus  
|---------------------------------------------------------------------------------| 
|---------------------------------------------------------------------------------|
|---6-6-6-6-6-6-6-6-6-6-6---------------------------------------------------------|
|---6-6-6-6-6-6-6-6-6-6-6-9-9-9-9-9-9-9-9-9-9-9-7-7-7-7-7-6-6-6-6-6-6-6-6-6-6-6-6-|
|---4-4-4-4-4-4-4-4-4-4-4-9-9-9-9-9-9-9-9-9-9-9-7-7-7-7-7-6-6-6-6-6-6-6-6-6-6-6-6-|
|-------------------------9-9-9-9-9-9-9-9-9-9-9-7-7-7-7-7-6-6-6-6-6-6-6-6-6-6-6-6|

Fuck it all and no regrets
I hit the lights on these dark sets
I need a voice to let myself
To let myself go free
Fuck it all and fuckin' no regrets
I hit the lights on these dark sets
Medallion noose, I hang myself
Saint Anger 'round my neck

James Guitar
|----------------------------------------------------------------------------------| 
|----------------------------------------------------------------------------------|
|---6-6-6-6-6-6-6-6-6-6-6--4-4-4-4-4-4-4-4-4-4-4-----------------------------------|
|---6-6-6-6-6-6-6-6-6-6-6--4-4-4-4-4-4-4-4-4-4-4-7-7-7-7-7-6-6-6-6-6-6-6-6-6-6-6-6-|
|---4-4-4-4-4-4-4-4-4-4-4--2-2-2-2-2-2-2-2-2-2-2-7-7-7-7-7-6-6-6-6-6-6-6-6-6-6-6-6-|
|------------------------------------------------7-7-7-7-7-6-6-6-6-6-6-6-6-6-6-6-6-|

Kirk Guitar 
|----------------------------------------------------------------------------------| 
|----------------------------------------------------------------------------------|
|---6-6-6-6-6-6-6-6-6-6-6----------------------------------------------------------|
|---6-6-6-6-6-6-6-6-6-6-6--9-9-9-9-9-9-9-9-9-9-9-7-7-7-7-7-6-6-6-6-6-6-6-6-6-6-6-6-|
|---4-4-4-4-4-4-4-4-4-4-4--9-9-9-9-9-9-9-9-9-9-9-7-7-7-7-7-6-6-6-6-6-6-6-6-6-6-6-6-|
|--------------------------9-9-9-9-9-9-9-9-9-9-9-7-7-7-7-7-6-6-6-6-6-6-6-6-6-6-6-6-|

I feel my world shake
Like an earth quake
It's hard to see clear
Is it me? Is it fear?

I'm madly in anger with you
I'm madly in anger with you
I'm madly in anger with you
I'm madly in anger with you

Repeat the above then comes the intro in the form of a bridge
 
Keep playing until the chorus starts again

|--------------------------------------------------------------------| 
|--------------------------------------------------------------------|
|--------------------------------------------------4-4-4-------------|
|---1-p-0--0----1-p-0--0---1-p-0--0----1-p-0--0----4-4-4-------------|
|---1-p-0--0----1-p-0--0---1-p-0--0----1-p-0--0----2-2-2-------------|
|---1-p-0--0----1-p-0--0---1-p-0--0----1-p-0--0----------------------|


Comments