Metallica - St Anger Chords & Tabs

 

St Anger Chords & Tabs

Metallica Chords & Tabs

Version: 18 Type: Tab 0 ratings
1 star 2 stars 3 stars 4 stars 5 stars
comments

St Anger Tab

   
ST.ANGER
1.Frantic
2.St.Anger
3.Some Kind Of Monster
4.Dirty Window
5.Invisible Kid
6.My World
7.Shoot Me Again
8.Sweet Amber
9.The Unnamed Feeling
10.Purify
11.All Within My Hands


1.Frantic

Intro:
   
  Gtr.1 Intro  (dist)
D|----------------------------------------------------------|
A|----------------------------------------------------------|
F|----------------------------------------------------------|
C|----------------------------------------------------------|
G|---------------------0------------------------------------|
C|-0-0-0-0-0-0-0-0------------------------------------------|
  PM  .  .   .  .   .  .   .  .  




  gtr.2 comes in at around 12 seconds into the song
D|----------------------------------------------------------|
A|----------------------------------------------------------|
F|----------------------------------------------------------|
C|----------------------------------------------------------| 
G|----------------------------------------------------------|
C|18-15-0-0-17-0-0------------------------------------------|
  PM.     .    . .    .    .  . 
      
      
      
      
      
   gtr.1 (clean)
D|-----------------------------------------------------------------------|
A|-----------------------------------------------------------------------|
F|-----------------------------------------------------------------------|
C|-----------------------------------------------------------------------|
G|-----------------------------------------------------------------------|
C|-18-15-0-17-17-17--18-15-0-17-17-17--18-15-0-17-17-17--18-15-0-0-0-0-0-|
PM                                                             . . . . .

Then both guitars play the same riff with heavy distortion.

==============================================================================

Verse
=====
gtr.1 & 2
D|------------------------|
A|------------------------|
F|------------------------|
C|------------------------|
G|-6-/-1------------------| X8
C|-6-/-1--0-0-0-0-0-0-0-0-|
pm        . . . . . . . .
 If I could have my wasted days back
 
D|------------------------|
A|------------------------|
F|------------------------|
C|------------------------|
G|-3--3-------------------| X4
C|-3--3---3-3-3-3-2-2-2-2-|
pm        . . . . . . . .
Do I have The strenth to know how I'll go

D|------------------------|
A|------------------------|
F|------------------------|
C|------------------------|
G|-6-/-1------------------| X4
C|-6-/-1--0-0-0-0-0-0-0-0-|
pm        . . . . . .
If I could have My wasted days back

gtr.1 (clean)
D|------------------------------------|
A|------------------------------------|
F|------------------------------------|
C|------------------------------------|
G|------------------------------------|
C|-18-15-0-17-17-17--18-15-0-17-17-17-|


gtr.1 & 2 (dist.)
D|------------------------------------|
A|------------------------------------|
F|------------------------------------|
C|------------------------------------|
G|------------------------------------|
C|-18-15-0-17-17-17--18-15-0-17-17-17-|
  You Live it Or Lie It


gtr.1 (clean)
D|------------------------------------|
A|------------------------------------|
F|------------------------------------|
C|------------------------------------|
G|------------------------------------|
C|-18-15-0-17-17-17--18-15-0-17-17-17-|


gtr.1 & 2 (dist.) 
D|---------------------|
A|---------------------|
F|---------------------|
C|---------------------|
G|------------------0--| X4
C|-0-0-0-0-0-0-0-0--0--|
My Lifestyle Determines My Deathstyle

==============================================================================

Chorus: Keep Searching, Keep On Searching. 
======
gtr.1 (clean)
D|-------------------------------------------------|
A|-----0-----0-----0-----0-----0----0-----0-----0--|
F|---0-----0-----0-----0--0--0----0-----0-----0----|
C|-3-----3-----3-----3-----3----3-----3-----3------|
G|-------------------------------------------------|
C|-------------------------------------------------|


   
gtr.2 (slightly distorted)
D|-------------------------------------------------|
A|-------------------------------------------------|
F|-------------------------------------------------|
C|-15-12-14---15-12-14--12/9/8/6-12/9/8/7----------|
G|-------------------------------------------------|
C|-------------------------------------------------|


Frantic tic tic tic tic toc.

gtr.1 (dist.)
D|---------------------------|
A|---------------------------|
F|---------------------------|
C|-6-6-6-6-3-3-5--0--0--0--0-|
G|---------------------------|
C|---------------------------|


gtr.2 (dist.)
D|----------------------------------|
A|----------------------------------|
F|----------------------------------|
C|----------------------------------|
G|----------------------------------|
C|-18-18-18-18-15-15-17--0--0--0--0-|


After the third chorus
this riff is played.

gtr.1 & 2 (dist.)
D|-------------------------------------------|
A|-------------------------------------------|
F|-------------------------------------------|
C|-------------------------------------------|
G|-------------------------------------------|
C|-18p17h18p17-0-0-0-0-0-0-15-17-0-0-0-0-0-0-|


==============================================================================
                                                                             
Ending:
======
gtr.1 (dist.)
D|---------|
A|---------|
F|---------|                             
C|---------|
G|-0--0--0-| Repeat
C|-0--0--0-|

Then guitar 2 comes in:

gtr.2 (dist.)
D|-----------------------|
A|-----------------------|
F|-----------------------|
C|-----------------------|
G|-----------------------|
C|-13-0-10-0-0-0-12-12---|                END
                                          ===
================================================

2.St.Anger

Q=189
   4/4
    Gtr I
    PM------|   PM|     PM----|            PM------|   PM|
    E E E E E E E E   E E E E E E E E   3x E E E E E E E E   E  E  H.
||------------------|-------------------||-----------------|----------|
||o-----------------|------------------o||-----------------|----------|
||------------------|-------------------||-----------------|----------|
||------------------|-----------3-3-3---||-----------------|----------|
||o-----------------|-----------3-3-3--o||-----------------|----------|
||--0-1-2-2-1-2-1-0-|-2-1-0-1-2---------||-0-1-2-2-1-2-1-0-|-2--------|


             PM------|   PM|     PM----|
  W          E E E E E E E E   E E E E E E E E
|----------|-----------------|-----------------|
|----------|-----------------|-----------------|
|----------|-----------------|-----------------|
|----------|-----------------|-----------3-3-3-|
|----------|-----------------|-----------3-3-3-|
|----------|-0-1-2-2-1-2-1-0-|-2-1-0-1-2-------|


  PM------|   PM|     PM----|
  E E E E E E E E   E E E E E E E E
|-----------------|-----------------|
|-----------------|-----------------|
|-----------------|-----------------|
|-----------------|-----------3-3-3-|
|-----------------|-----------3-3-3-|
|-0-1-2-2-1-2-1-0-|-2-1-0-1-2-------|


  PM------|   PM|     PM----|         PM------|   PM|     PM|   PM|   PM
  E E E E E E E E   E E E E E E E E   E E E E E E E E   E E E E E E E E
|-----------------|-----------------|-----------------|-----------------|
|-----------------|-----------------|-----------------|-----------------|
|-----------------|-----------------|-----------------|-----------------|
|-----------------|-----------3-3-3-|-----------------|-----------------|
|-----------------|-----------3-3-3-|-----------------|-----------------|
|-0-1-2-2-1-2-1-0-|-2-1-0-1-2-------|-0-1-2-2-1-2-1-0-|-2-1-0-2-1-0-2-1-|
|
| Gtr IV
|                                       H     E E E E   E E E E E E E E
|-----------------|-----------------|-----------------|-----------------|
|-----------------|-----------------|-----------------|-----------------|
|-----------------|-----------------|-----------------|-----------------|
|-----------------|-----------------|-----------------|-----------------|
|-----------------|-----------------|-----------2-1-0-|-2-1-0-2-1-0-2-1-|
|-----------------|-----------------|-----------2-1-0-|-2-1-0-2-1-0-2-1-|


 3/4
  PM--|         PM------|   PM|     PM----|
  E E E E E E   E E E E E E E E   E E E E E E E E
|-------------|-----------------|-----------------|
|-------------|-----------------|-----------------|
|-------------|-----------------|-----------------|
|-------3-3-3-|-----------------|-----------3-3-3-|
|-------3-3-3-|-----------------|-----------3-3-3-|
|-0-1-2-------|-0-1-2-2-1-2-1-0-|-2-1-0-1-2-------|
|
| E E H         H       E E E E   E E E E H
|-------------|-----------------|-----------------|
|-------------|-----------------|-----------------|
|-------------|-----------------|-----------------|
|-------------|-----------------|-----------------|
|-0-----------|-----------2-1-0-|-2-1-0-----------|
|-0-----------|-----------2-1-0-|-2-1-0-----------|


  PM------|   PM|     PM----|
  E E E E E E E E   E E E E E E E E
|-----------------|------------------|
|-----------------|------------------|
|-----------------|------------------|
|-----------------|-----------3-3-3--|
|-----------------|-----------3-3-3--|
|-0-1-2-2-1-2-1-0-|-2-1-0-1-2--------|
|
| H       E E E E   E E E E H
|-----------------|------------------|
|-----------------|------------------|
|-----------------|------------------|
|-----------------|------------------|
|-----------2-1-0-|-2-1-0------------|
|-----------2-1-0-|-2-1-0------------|


  PM------|   PM|     PM----|         PM------|   PM|     PM|   PM|   PM
  E E E E E E E E   E E E E E E E E   E E E E E E E E   E E E E E E E E
|-----------------|-----------------|-----------------|-----------------|
|-----------------|-----------------|-----------------|-----------------|
|-----------------|-----------------|-----------------|-----------------|
|-----------------|-----------3-3-3-|-----------------|-----------------|
|-----------------|-----------3-3-3-|-----------------|-----------------|
|-0-1-2-2-1-2-1-0-|-2-1-0-1-2-------|-0-1-2-2-1-2-1-0-|-2-1-0-2-1-0-2-1-|
|
| H       E E E E   E E E E H         H       E E E E   E E E E E E E E
|-----------------|-----------------|-----------------|-----------------|
|-----------------|-----------------|-----------------|-----------------|
|-----------------|-----------------|-----------------|-----------------|
|-----------------|-----------------|-----------------|-----------------|
|-----------2-1-0-|-2-1-0-----------|-----------2-1-0-|-2-1-0-2-1-0-2-1-|
|-----------2-1-0-|-2-1-0-----------|-----------2-1-0-|-2-1-0-2-1-0-2-1-|


              $
 3/4              4/4
  PM--|
  E E E E E E      E E E E E E E E
|--------------||------------------|
|--------------||o-----------------|
|--------------||------------------|
|-------3-3-3--||------------------|
|-------3-3-3--||o-0-1-2-2-1-2-1-0-|
|-0-1-2--------||--0-1-2-2-1-2-1-0-|
|
| E E H            E E E E E E E E
|--------------||------------------|
|--------------||o-----------------|
|--------------||------------------|
|--------------||------------------|
|-0------------||o-0-1-2-2-1-2-1-0-|
|-0------------||--0-1-2-2-1-2-1-0-|


  E E E E E E E E  8x  E E E E E E   E E E E E E
|------------------||--------------|---------------|
|-----------------o||--------------|---------------|
|------------------||--------------|---------------|
|-----------3-3-3--||--------------|---------------|
|-2-1-0-1-2-3-3-3-o||--0-1-2-2-1-2-|-2-1-0-2-1-0---|
|-2-1-0-1-2--------||--0-1-2-2-1-2-|-2-1-0-2-1-0---|
|
|                      PM----------------------|
| E E E E E E E E  8x  E E E E E E   E E E E E E
|------------------||--------------|---------------|
|-----------------o||--------------|---------------|
|------------------||--------------|---------------|
|-----------3-3-3--||--------------|---------------|
|-2-1-0-1-2-3-3-3-o||--------------|---------------|
|-2-1-0-1-2--------||--2-1-0-2-1-0-|-2-1-0-2-1-0---|


 4/4
  Gtr III
  Q  +S  S E Q  Q    +Q   H.        H     H       H     H
|------------------|--------------|-------------|-------------|
|---------------1--|-(1)--3-------|-3-----3-----|-------------|
|------------2-----|--------------|-------------|-------------|
|-0--(0)-x-x-------|--------------|-------------|-------------|
|------------------|--------------|-------------|-1-----0-----|
|------------------|--------------|-------------|-------------|
|
| Gtr II
| Q   H         Q    +Q   H.        Q  Q  Q  Q    Q  Q  Q  Q
|---------------2--|-(2)----------|-------------|-------------|
|-3----------------|------3-------|-------3-----|----3-----3--|
|-----2------------|--------------|----0-----0--|-------------|
|------------------|--------------|-------------|-------------|
|------------------|--------------|-3-----------|-1-----0-----|
|------------------|--------------|-------------|-------------|


    Q  +S  S E Q  Q    +Q   H.        H     H        H     H        3x
||-------------------|--------------|--------------|----------------||
||o---------------1--|-(1)--3-------|-3-----3------|---------------o||
||-------------2-----|--------------|--------------|----------------||
||--0--(0)-x-x-------|--------------|--------------|----------------||
||o------------------|--------------|--------------|-1-----0-------o||
||-------------------|--------------|--------------|----------------||
|
|   Q   H         Q    +Q   H.        Q  Q  E E Q    Q  Q  Q  Q     3x
||-------------------|--------------|--------------|----------------||
||o---------------3--|-(3)----------|-------3-3----|----3-----3----o||
||------2------------|------2-------|----0------0--|----------------||
||--0----------------|--------------|--------------|----------------||
||o------------------|--------------|-3------------|-1-----0-------o||
||-------------------|--------------|--------------|----------------||


    Gtr I
    TP         TP          TP          TP
    W          W           W           W                    4x
||-----------|----------|-----------|-----------------------||
||o----------|----------|-----------|----------------------o||
||--7--------|-7--------|-10--------|--9--------------------||
||-----------|----------|-----------|-----------------------||
||o-5--------|-5--------|--8--------|--7-------------------o||
||-----------|----------|-----------|-----------------------||
|
|   Gtr IV
|   TP         TP          TP          TP       TP      TP
|   W          W           W           Q  +S    Q..     Q   4x
||-----------|----------|-----------|-----------------------||
||o----------|----------|-----------|-11-(11)--10------10--o||
||--7--------|-7--------|--5--------|-----------------------||
||--7--------|-7--------|-----------|--8--(8)---7-------7---||
||o----------|----------|--3--------|----------------------o||
||-----------|----------|-----------|-----------------------||


    W          E E Q  E E Q    W           H    H
||-----------|---------------|----------|-------------||-|
||o----------|---------------|----------|------------o||-|
||-----------|---------------|-5--------|-10----9-----||-|
||--0--------|-0-0----0-0----|-5--------|--8----7-----||-|
||o-0--------|-0-0----0-0----|-3--------|------------o||-|
||--0--------|-0-0----0-0----|----------|-------------||-|
|
|   W          E E Q  E E Q    W           H    H
||-----------|---------------|----------|-------------||-|
||o----------|---------------|----------|------------o||-|
||-----------|---------------|-5--------|--3----2-----||-|
||--0--------|-0-0----0-0----|-5--------|--3----2-----||-|
||o-0--------|-0-0----0-0----|-3--------|--1----0----o||-|
||--0--------|-0-0----0-0----|----------|-------------||-|


    W          +W            W           H    H   8x
||-----------|------------|------------|----------||-|
||o----------|------------|------------|---------o||-|
||-----------|------------|------------|-3----2---||-|
||-----------|------------|-(5)--------|-3----2---||-|
||o-5--------|-(5)--------|--3---------|-1----0--o||-|
||-----------|------------|------------|----------||-|
|
|   TP          TP           TP          TP
|   W           W            W           W        8x
||-----------|------------|------------|----------||-|
||o----------|------------|------------|---------o||-|
||--7--------|--7---------|--5---------|-9--------||-|
||--7--------|--7---------|--5---------|-7--------||-|
||o----------|------------|------------|---------o||-|
||-----------|------------|------------|----------||-|


             PM|    PM|      PM|    PM|
  W          E E Q  E E Q    E E Q  E E Q
|----------|---------------|---------------|
|----------|---------------|---------------|
|-7--------|---------------|---------------|
|----------|-0-0----0-0----|-0-0----0-0----|
|-5--------|-0-0----0-0----|-0-0----0-0----|
|----------|-0-0----0-0----|-0-0----0-0----|
|
|            PM|    PM|      PM|    PM|
| W          E E Q  E E Q    E E Q  E E Q
|----------|---------------|---------------|
|----------|---------------|---------------|
|----------|---------------|---------------|
|-0--------|-0-0----0-0----|-0-0----0-0----|
|-0--------|-0-0----0-0----|-0-0----0-0----|
|-0--------|-0-0----0-0----|-0-0----0-0----|


                                D.S.
  PM------|   PM|     PM----|
  E E E E E E E E   E E E E E E E E
|-----------------|--------------------|
|-----------------|--------------------|
|-----------------|--------------------|
|-----------------|-----------3-3-3----|
|-----------------|-----------3-3-3----|
|-0-1-2-2-1-2-1-0-|-2-1-0-1-2----------|
|
| PM------|   PM|     PM----|
| E E E E E E E E   E E E E E E E E
|-----------------|--------------------|
|-----------------|--------------------|
|-----------------|--------------------|
|-----------------|-----------3-3-3----|
|-----------------|-----------3-3-3----|
|-0-1-2-2-1-2-1-0-|-2-1-0-1-2----------|


  $$
       PM------|   PM|     PM----|           PM------|   PM|
       E E E E E E E E   E E E E E E E E  3x E E E E E E E E
|--||------------------|------------------||-----------------|
|--||o-----------------|-----------------o||-----------------|
|--||------------------|------------------||-----------------|
|--||------------------|-----------3-3-3--||-----------------|
|--||o-----------------|-----------3-3-3-o||-----------------|
|--||--0-1-2-2-1-2-1-0-|-2-1-0-1-2--------||-0-1-2-2-1-2-1-0-|


    PM----|         PM------|   PM|     PM----|
  E E E E E E E E   E E E E E E E E   E E E E E E E E
|-----------------|-----------------|--------------------|
|-----------------|-----------------|--------------------|
|-----------------|-----------------|--------------------|
|-----------3-3-3-|-----------------|-----------3-3-3----|
|-----------3-3-3-|-----------------|-----------3-3-3----|
|-2-1-0-1-2-------|-0-1-2-2-1-2-1-0-|-2-1-0-1-2----------|


  PM------|   PM|     PM----|         PM------|   PM|     PM|   PM|   PM
  E E E E E E E E   E E E E E E E E   E E E E E E E E   E E E E E E E E
|-----------------|-----------------|-----------------|-----------------|
|-----------------|-----------------|-----------------|-----------------|
|-----------------|-----------------|-----------------|-----------------|
|-----------------|-----------3-3-3-|-----------------|-----------------|
|-----------------|-----------3-3-3-|-----------------|-----------------|
|-0-1-2-2-1-2-1-0-|-2-1-0-1-2-------|-0-1-2-2-1-2-1-0-|-2-1-0-2-1-0-2-1-|
|
| Gtr IV
|                                       H     E Q E     Q   E Q E   Q
|-----------------|-----------------|-----------------|-----------------|
|-----------------|-----------------|-----------------|-----------------|
|-----------------|-----------------|-----------------|-----------------|
|-----------------|-----------------|-----------------|-----------------|
|-----------------|-----------------|-----------2-----|-2-----2-----2---|
|-----------------|-----------------|-----------2-----|-2-----2-----2---|


 3/4
  PM--|         PM------|   PM|     PM-----|
  E E E E E E   E E E E E E E E   E E E E  E E E E
|-------------|-----------------|------------------|
|-------------|-----------------|------------------|
|-------------|-----------------|------------------|
|-------3-3-3-|-----------------|------------3-3-3-|
|-------3-3-3-|-----------------|------------3-3-3-|
|-0-1-2-------|-0-1-2-2-1-2-1-0-|-2-1-0-1--2-------|
|
|     W         H       E Q   E   Q     H.
|-------------|-----------------|------------------|
|-------------|-----------------|------------------|
|-------------|-----------------|------------------|
|-------------|-----------------|------------------|
|-------------|-----------2-----|-2----------------|
|-------------|-----------2-----|-2----------------|


  PM------|   PM|     PM----|
  E E E E E E E E   E E E E E  E E E
|-----------------|-------------------|
|-----------------|-------------------|
|-----------------|-------------------|
|-----------------|------------3-3-3--|
|-----------------|------------3-3-3--|
|-0-1-2-2-1-2-1-0-|-2-1-0-1-2---------|
|
| H       E Q   E   Q       H.
|-----------------|-------------------|
|-----------------|-------------------|
|-----------------|-------------------|
|-----------------|-------------------|
|-----------2-----|-2-----------------|
|-----------2-----|-2-----------------|


  PM------|   PM|     PM-----|         PM------|   PM|     PM|   PM|   PM
  E E E E E E E E   E E E  E E E E E   E E E E E E E E   E E E E E E E E
|-----------------|------------------|-----------------|-----------------|
|-----------------|------------------|-----------------|-----------------|
|-----------------|------------------|-----------------|-----------------|
|-----------------|------------3-3-3-|-----------------|-----------------|
|-----------------|------------3-3-3-|-----------------|-----------------|
|-0-1-2-2-1-2-1-0-|-2-1-0--1-2-------|-0-1-2-2-1-2-1-0-|-2-1-0-2-1-0-2-1-|
|
| H       E Q E     Q   H.             H       E Q E     Q E   Q E   Q
|-----------------|------------------|-----------------|-----------------|
|-----------------|------------------|-----------------|-----------------|
|-----------------|------------------|-----------------|-----------------|
|-----------------|------------------|-----------------|-----------------|
|-----------2-----|-2----------------|-----------2-----|-2-----2-----2---|
|-----------2-----|-2----------------|-----------2-----|-2-----2-----2---|


 3/4             4/4
  PM--|
  E E E E E E     E E E E E E E E   E E E E E E E E 18x
|-------------||------------------|------------------||-|
|-------------||o-----------------|-----------------o||-|
|-------------||------------------|------------------||-|
|-------3-3-3-||------------------|-----------3-3-3--||-|
|-------3-3-3-||o-0-1-2-2-1-2-1-0-|-2-1-0-1-2-3-3-3-o||-|
|-0-1-2-------||--0-1-2-2-1-2-1-0-|-2-1-0-1-2--------||-|
|
|     W           E E E E E E E E   E E E E E E E E 18x
|-------------||------------------|------------------||-|
|-------------||o-----------------|-----------------o||-|
|-------------||------------------|------------------||-|
|-------------||------------------|-----------3-3-3--||-|
|-------------||o-0-1-2-2-1-2-1-0-|-2-1-0-1-2-3-3-3-o||-|
|-------------||--0-1-2-2-1-2-1-0-|-2-1-0-1-2--------||-|


 3/4 4/4                                   3/4
      E E E E E E E E   E E E E E E E E  8x E E E E E E   E E E E E E
|-||------------------|------------------||-------------|--------------|
|-||o-----------------|-----------------o||-------------|--------------|
|-||------------------|------------------||-------------|--------------|
|-||------------------|-----------3-3-3--||-------------|--------------|
|-||o-0-1-2-2-1-2-1-0-|-2-1-0-1-2-3-3-3-o||-0-1-2-2-1-2-|-2-1-0-2-1-0--|
|-||--0-1-2-2-1-2-1-0-|-2-1-0-1-2--------||-0-1-2-2-1-2-|-2-1-0-2-1-0--|
|
|                                           PM----------------------|
|     E E E E E E E E   E E E E E E E E  8x E E E E E E   E E E E E E
|-||------------------|------------------||-------------|--------------|
|-||o-----------------|-----------------o||-------------|--------------|
|-||------------------|------------------||-------------|--------------|
|-||------------------|-----------3-3-3--||-------------|--------------|
|-||o-0-1-2-2-1-2-1-0-|-2-1-0-1-2-3-3-3-o||-------------|--------------|
|-||--0-1-2-2-1-2-1-0-|-2-1-0-1-2--------||-2-1-0-2-1-0-|-2-1-0-2-1-0--|


   4/4
    W          +W            W           H    H  10x
||-----------|------------|------------|----------||--|
||o----------|------------|------------|---------o||--|
||-----------|------------|------------|-3----2---||--|
||-----------|------------|-(5)--------|-3----2---||--|
||o-5--------|-(5)--------|--3---------|-1----0--o||--|
||-----------|------------|------------|----------||--|
|
|   TP          TP           TP          TP
|   W           W            W           W       10x
||-----------|------------|------------|----------||--|
||o----------|------------|------------|---------o||--|
||--7--------|--7---------|--5---------|-9--------||--|
||--7--------|--7---------|--5---------|-7--------||--|
||o----------|------------|------------|---------o||--|
||-----------|------------|------------|----------||--|


             PM|    PM|      PM|    PM|
  W          E E Q  E E Q    E E Q  E E Q
|----------|---------------|---------------|
|----------|---------------|---------------|
|-7--------|---------------|---------------|
|----------|-0-0----0-0----|-0-0----0-0----|
|-5--------|-0-0----0-0----|-0-0----0-0----|
|----------|-0-0----0-0----|-0-0----0-0----|
|
|            PM|    PM---------|    PM|
| W          E E Q  E E Q    E E Q  E E Q
|----------|---------------|---------------|
|----------|---------------|---------------|
|----------|---------------|---------------|
|-0--------|-0-0----0-0----|-0-0----0-0----|
|-0--------|-0-0----0-0----|-0-0----0-0----|
|-0--------|-0-0----0-0----|-0-0----0-0----|


  PM------|   PM|     PM--|
  E E E E E E E E   E E E E E E E E    E Q
|-----------------|------------------|-------------|
|-----------------|------------------|-------------|
|-----------------|------------------|-------------|
|-----------------|-----------3-3-3--|---0---------|
|-----------------|-----------3-3-3--|---0---------|
|-0-1-2-2-1-2-1-0-|-2-1-0-1-2--------|-0-0---------|
|
| PM------|   PM|     PM--|
| E E E E E E E E   E E E E E E E E    E Q    H.
|-----------------|------------------|-------------|
|-----------------|------------------|-------------|
|-----------------|------------------|-------------|
|-----------------|-----------3-3-3--|---0---------|
|-----------------|-----------3-3-3--|---0---------|
|-0-1-2-2-1-2-1-0-|-2-1-0-1-2--------|-0-0---------|

3.Some Kind Of Monster

D |--------------------------------------------------------------------------|
A |--------------------------------------------------------------------------|
F |--------------------------------------------------------------------------|
C |--------------------------------------------------------------------------|
G |--------------------------------------------------------------------------|
C |-0--0-3-5-0--0-3-5-0-3-5-0-3-5-0--0-0-3-5-0--0-3-5-0-3-5-0-3-5------------|

D |--------------------------------------------------------------------------|
A |--------------------------------------------------------------------------|
F |--------------------------------------------------------------------------|
C |--------------------------------------------------------------------------|
G |-0--0-3-5-0--0-3-5-0-3-5-0-3-5-0--0-0-3-5-0--0-3-5-0-3-5-0-3-5------------|
C |-0--0-3-5-0--0-3-5-0-3-5-0-3-5-0--0-0-3-5-0--0-3-5-0-3-5-0-3-5------------|

D |--------------<5>--------------<5>----------------------------------------|
A |--------------<5>--------------<5>----------------------------------------|
F |--------------<5>--------------<5>----------------------------------------|
C |--------------------------------------------------------------------------|
G |--5-3-3--5-0-------5-3-3--5-0---------------------------------------------|
C |--5-3-3--5-0-------5-3-3--5-0---------------------------------------------|

D |--------------------------------------------------------------------------|
A |--------------------------------------------------------------------------|
F |--------------------------------------------------------------------------|
C |------3-5------3-5------3-5------3-5------3-5------3-5------3-5-6---------|
G |-5--5-----5--5-----5--5-----5--5-----5--5-----5--5-----5--5---------------|
C |--------------------------------------------------------------------------|
	I like playing the second one, but I think the first one is correct.
D |--------------------------------------------------------------------------|
A |--------------------------------------------------------------------------|
F |-------10-12-------10-12-------10-12-------10-12-------10-12------10-12-13|
C |-12-12-------12-12-------12-12-------12-12-------12-12-------12-12--------|
G |--------------------------------------------------------------------------|
C |--------------------------------------------------------------------------|

D |--------------------------------------------------------------------------|
A |--------------------------------------------------------------------------|
F |--------------------------------------------------------------------------|
C |--------------------------------------------------------------------------|
G |-00-11/12-0-12-12-0-00-11/12-0-12-12-0------------------------------------|
C |-00-11/12-0-12-12-0-00-11/12-0-12-12-0------------------------------------|

	Part where he goes �Yeah�
D |--------------------------------------------------------------------------|
A |--------------------------------------------------------------------------|
F |--------------------------------------------------------------------------|
C |--------------------------------------------------------------------------|
G |-00-15-0-00-15-0-00-15-0-00-15-00-15-0-00-15-0-00-15-0-00-15--------------|
C |-00-15-0-00-15-0-00-15-0-00-15-00-15-0-00-15-0-00-15-0-00-15--------------|
 

	Verse �These are the eyes that can�t see me�
D |--------------------------------------------------------------------------|
A |--------------------------------------------------------------------------|
F |--------------------------------------------------------------------------|
C |--------------------------------------------------------------------------|
G |----8------7------8------7------------------------------------------------|
C |--0------0------0------0--------------------------------------------------|

D |--------------------------------------------------------------------------|
A |--------------------------------------------------------------------------|
F |--------------------------------------------------------------------------|
C |--------------------------------------------------------------------------|
G |-0-0-0-0-0-1-2--0-0-0-0-0-1-2-0----------------------------------------|
C |-0-0-0-0-0-1-2--0-0-0-0-0-1-2-0----------------------------------------|

	�We the people�
D |--------------------------------------------------------------------------|
A |--------------------------------------------------------------------------|
F |--------------------------------------------------------------------------|
C |--------------------------------------------------------------------------|
G |-3-5-00-5-3-5-00--3-5-00-5-3-5-00-----------------------------------------|
C |-3-5-00-5-3-5-00--3-5-00-5-3-5-00-----------------------------------------|

D |--------------------------------------------------------------------------|
A |--------------------------------------------------------------------------|
F |--------------------------------------------------------------------------|
C |--------------------------------------------------------------------------|
G |-3-5-00-3-5-00-3-5-00-5-3-5-00--0-3-5-00-3-5-00-3-5-00-5-3-5-00-----------|
C |-3-5-00-3-5-00-3-5-00-5-3-5-00--0-3-5-00-3-5-00-3-5-00-5-3-5-00-----------|

D |--------------------------------------------------------------------------|
A |--------------------------------------------------------------------------|
F |--------------------------------------------------------------------------|
C |---3/5-3---------3/5-3----------------------------------------------------|
G |-0-------000-1-0-------000-111--------------------------------------------|
C |-0-------000-1-0-------000-111--------------------------------------------|

	�This is the cloud that swallows trust�
D |--------------------------------------------------------------------------|
A |--------------------------------------------------------------------------|
F |--------------------------------------------------------------------------|
C |--------------------------------------------------------------------------|
G |-0-3-3-0-3-3--0-3-3-0-3-3-----3-------------------------------------------|
C |-0-3-3-0-3-3--0-3-3-0-3-3-3/5-3-------------------------------------------|

	�Ominous I�m in us�
D |--------------------------------------------------------------------------|
A |-----7-5-7-----7-5-7------7-5-7------7-5-7--------------------------------|
F |-----7-5-7-----7-5-7------7-5-7------7-5-7--------------------------------|
C |-----7-5-7-----7-5-7------7-5-7------7-5-7--------------------------------|
G |-0---------0----------0----------0----------------------------------------|
C |-0---------0----------0----------0----------------------------------------|

D |-12-12-12-12----------12----12----12-12-12-12----------12----12-----------|
A |-------------12-12-12----12----12-------------12-12-12----12----12--------|
F |--------------------------------------------------------------------------|
C |--------------------------------------------------------------------------|
G |--------------------------------------------------------------------------|
C |--------------------------------------------------------------------------|

4.Dirty Window

Intro & Bridge:  (With Rhythm Of Drums)
Eb:------------------------------------
Bb:------------------------------------
Gb:------------------------------------
Db:------------------------------------
Ab:-0-0--0-0--0---0----0----0----0-----
Db:-0-0--0-0--0---0----0----0----0----- 
    . .  . .  .   .    .    .    .

Main Riff:
Eb:------------------------------------------
Bb:------------------------------------------
Gb:------------------------------------------
Db:------------------------------------------
Ab:---------------------------------5--------
Db:-0---3--5---0---3--5---0---3--5-----6--5--

Db:--------------------------
Ab:-3~~~3p0--0----3/5--5~----
Db:-3~~~3p0--0----3/5--5~----


�Am I Who I Think I Am?� Riff:
Eb:-----------------------------------------
Bb:-----------------------------------------
Gb:-----------------------------------------
Db:-----------------------------------------
Ab:-0---3--5----0---x--x-x-x--0---3--5------
Db:-0---3--5----0---x--x-x-x--0---3--5--5^7-


�Look Out My Window�� Riff:
Eb:---------------------------------------
Bb:---------------------------------------
Gb:---------------------------------------
Db:---------------------------------------
Ab:-3---6--8----3---x--x---3---6--8-------
Db:-3---6--8----3---x--x---3---6--8�8~----

Db:----------------------
Ab:3---6--8----3---6--8--
Db:3---6--8----3---6--8�-
   .   .  .    .   .  .


�I�m Judge and The Jury�� Riff:
Eb:--------------------------------------------------------------------
Bb:--------------------------------------------------------------------
Gb:-2~~~---2p0~~~3p2~--------------------------------------------------
Db:-----3--------------------------------------------------------------
Ab:------------------------------------------------------------5-------
Db:----------------------------0---3--5---0---3--5---0---3--5-----6-5--

Chorus:
Eb:---------------------   ------------------------------
Bb:---------------------   ------------------------------
Gb:---------------------   ------------------------------
Db:---------------------   ------------------------------
Ab:-0-----3-----5----0--   -0-----3-----5----5-----------
Db:-0-----3-----5----0--   -0-----3-----5-------6--5-----

5.Invisible Kid

INTRO /RIFF 1
-----|-----------------------------| -12- |-----------|
-----|-----------------------------|   T  |-----------|
-----|-----------------------------|   I  |-----------|
-----|-----------------------------|   M  |-----------|
-----|-0-------------------5-------|   E  |-----------|
--0--|-0-----3---0---5-0-0------0--|   S  |-0--0-0-0--|

RIFF 2
|------------------------------------------| -8-
|------------------------------------------| T
|------------------------------------------| I
|------------------------------------------| M
|-0--3----3----5--0----0--3----3----5-0----| E
|-0--3----3----5--0----0--3----3----5-0----| S


RIFF 3 (Verseriff)
|--------------------------------------------------------
|--------------------------------------------------------
|--------------------------------------------------------
|--------------------------------------------------------
|---------8-------0--0-0-0---0-0-0---8-------0---0-0-0---
|-0-0-0------0----0--0-0-0---0-0-0------0----0---0-0-0---

---------------------------------------------------| -6-
---------------------------------------------------| T
---------------------------------------------------| I
----------------------------10---10--/12---10------| M
-0-0-0---8-------0--0-0-0---8----8---/10---8---0---| E
-0-0-0------0----0--0-0-0----------------------0---| S


RIFF 4 (NOTE! =check down of this page)
|-------------------------| -4-
|-------------------------| T
|-------------------------| I
|-------------------------| M
|-3--0--0--3-----0--0--0--| E
|-3--0--0--3-----0--0--0--| S


THEN PLAY:
RIFF 3 /VERSE x 4

RIFF 4 x 8

THEN:

RIFF 5A
|-------------------------| -3- |-------------------------|
|-------------------------| T   |-------------------------|
|-------------------------| I   |-------------------------|
|--------------------__---| M   |----------8--8--9---__---|
|-0--0--0--1--1--2--2__3--| E   |-0--0--0--6--6--7--7--8--|
|-0--0--0--1--1--2--2--3--| S   |-0--0--0-----------------|

RIFF 5B (4 times)
| |-------------------------| -3- |-------------------------| |
|o|-------------------------| T   |-------------------------|o|
| |-------------------------| I   |-------------------------| |
| |-------------------------| M   |----------8--8--9--9--10-| |
|o|-0--0--0--1--1--2--2--3--| E   |-0--0--0--6--6--7--7--8--|o|
| |-0--0--0--1--1--2--2--3--| S   |-0--0--0-----------------| |

RIFF 5A
|-------------------------| -3- |-------------------------|
|-------------------------| T   |-------------------------|
|-------------------------| I   |-------------------------|
|--------------------__---| M   |----------8--8--9---__---|
|-0--0--0--1--1--2--2__3--| E   |-0--0--0--6--6--7--7--8--|
|-0--0--0--1--1--2--2--3--| S   |-0--0--0-----------------|

RIFF 5B
| |-------------------------| -3- |-------------------------| |
|o|-------------------------| T   |-------------------------|o|
| |-------------------------| I   |-------------------------| |
| |-------------------------| M   |----------8--8--9--9--10-| |
|o|-0--0--0--1--1--2--2--3--| E   |-0--0--0--6--6--7--7--8--|o|
| |-0--0--0--1--1--2--2--3--| S   |-0--0--0-----------------| |

RIFF 5C
| |-------------------------| |
|o|-------------------------|o|
| |-------------------------| |
| |-------------------------| |
|o|-0--0--0--1--1--2--2--3--|o|
| |-0--0--0--1--1--2--2--3--| |


THEN PLAY:
RIFF 3 /VERSERIFF x 6

RIFF 4 x 8

RIFF 5A

RIFF 5B x 4

RIFF 5A

RIFF 5B x 2

RIFF 5C

THEN:

RIFF 6 
|---------------------| -13-
|---------------------| T
|---------------------| I
|---------------------| M
|----8--8----8----8/--| E
|-0*---------------\--| S
(^ two guitars, gtr I takes 6 string down and gtr II takes 5 string up)
(* Dont play first time, but play all other times)

RIFF 7
|--------------------------------------------------------------|
|--------------------------------------------------------------|
|--------------------------------------------------------------|
|-7----------5----7----------5----7-----------5----8---8---8---|
|-5----------3----5----------3----5-----------3----6---6---6---|
|-0------------------------------------------------------------|


RIFF 7B
|--------------------------------------------------------------| -9-
|--------------------------------------------------------------| T
|--------------------------------------------------------------| I
|-7----------5----7----------5----7-----------5----8---8---8---| M
|-5----0--0--3----5----0--0--3----5-----0--0--3----6---6---6---| E
|-0----0--0------------0--0-------------0--0-------------------| S


THEN PLAY:
RIFF 6 x 8

RIFF 6 WITH OCTAVE HIGHER GTR x 6

RIFF 1 x 4

RIFF 2 x 2

RIFF 3 /VERSERIFF x 5

RIFF 4 x 8

RIFF 5A

RIFF 5B x 4

RIFF 5A

RIFF 5B x 2

RIFF 5C

THEN:

RIFF 8
|----------------------|3|---------------| -5-
|----------------------|T|---------------| T
|----------------------|I|---------------| I THE
|----------------------|M|---------------| M END
|-0--5----5----5----3--|E|-5------1------| E
|-0--0----0----0----0--|S|-5------1------| S

TABBED BY
T E R O S A I K K O N E N

contact me to:
t s s l a y e r @ l u u k k u . c o m


NOTE!!! Metallica play that riff 4 on live like this:
|-------------------------|
|-------------------------|
|-------------------------|
|-------------------------|
|-3--0--0--3-----5--0--0--|
|-3--0--0--3-----5--0--0--|

6.My World

Intro
d|------------------------------------|----------------------------------------|
A|------------------------------------|----------------------------------------|
F|o----------------------------------o|----------------------------------------|
C|o--------------------------0-------o|-------------------------0--------------|
G|---------------------------0--------|-------------------------2--------------|
C|--0--0----0--0--0--0-------0--------|-0--0----0--0--0--0------1--------------|
    pm---------------|			pm---------------|
	     End Intro    Riff A				      End Riff A
d|----------------------|------------------------------------------------------|
A|----------------------|------------------------------------------------------|
F|----------------------|o----------------------------------------------------o|
C|----------------------|o----------------------------------------------------o|
G|----------------------|-------------------------------------0h3h5~-----------|
C|--0--0----0--0--0--0--|--0--0--0--3--0--0--5--0--0--0--0--0------------------|
    pm---------------|	      pm-|     pm-|     pm-|     pm-|
  Riff A1                              End Riff A1
d|------------------------------------------------|----------------------------|
A|------------------------------------------------|----------------------------|
F|o----------------------------------------------o|----------------------------|
C|o----------------------------------------------o|----------------------------|
G|--------------------------------------0h3h5~----|----------------------------|
C|--0--0--0--3--0--0--5--0--0--0--0--0------------|----------------------------|
       pm-|     pm-|     pm-|     pm-|
  Riff A2                             End Riff A2 Riff B
d|-----------------------------------------------|-----------------------------|
A|-----------------------------------------------|-----------------------------|
F|o---------------------------------------------o|o----------------------------|
C|o---------------------------------------------o|o----------------------------|
G|--0------3------5----------0----------0h3h5~---|-----------------------------|
C|--0------3------5----------0-------------------|--0--0--0--3--0--0--5--0--0--|
						       pm-|     pm-|     pm-|
						    |1,              End Riff B
d|-----------------------------------------------------------------------------|
A|-----------------------------------------------------------------------------|
F|----------------------------------------------------------------------------o|
C|----------------------------------------------------------------------------o|
G|-----------0h3h5~----0---------3--------5----------3----------0--------------|
C|--0--0--0------------0---------3--------5----------3----------0--------------|
       pm-|
   |2,
d|------------------------------------------|----------------------------------|
A|------------------------------------------|----------------------------------|
F|------------------------------------------|----------------------------------|
C|------------------------------------------|---Repeat-Riff-B-Six-Times-More---|
G|--(5)----3----------0---------------------|----------------------------------|
C|--(5)----3----------0---------------------|----------------------------------|

  Riff A3						            End Riff A3
d|-----------------------------------------------------------------------------|
A|-----------------------------------------------------------------------------|
F|o---------------------------------------------------------------------------o|
C|o---------------------------------------------------------------------------o|
G|--0-------3---------5----------------------------------------(5)-------------|
C|--0-------3---------5----------------------------------------(5)-------------|
								             x3
  Riff A4 - Half Time Feel				            End Riff A4
d|-----------------------------------------------------------------------------|
A|-----------------------------------------------------------------------------|
F|o---------------------------------------------------------------------------o|
C|o---------------------------------------------------------------------------o|
G|--F5--D5--------F5--D5--------G5----Ab5--D5------After-this-play-Riff-A-x4---|
C|-------------------------------------------------then-Riff-A2-x2-------------|
									     x7
  Riff C - End Half Time Feel					     End Riff C
d|-----------------------------------------------------------------------------|
A|-----------------------------------------------------------------------------|
F|o---------------------------------------------------------------------------o|
C|o---------------------------------------------------------------------------o|
G|-----------------------------------------------------------------------------|
C|--3p0--0--0--0--0--3p0------5---6p0---3p0--0--0--0--0--3p0-----5-----6p0-----|
         pm    pm-|			     pm    pm-|
  Riff D		       End Riff D Riff E		     End Riff E
d|---------------------------------------|-------------------------------------|
A|---------------------------------------|-------------------------------------|
F|o----------------------------5-(5)/7--o|o----------------------------5------o|
C|o----------------------------5-(5)/7--o|o----------------------------5------o|
G|-----------------------------3-(3)/5---|-----------------------------3-------|
C|--0--0--0--3--0--0--0--0--0------------|--0--0--0--3--0--0--0--0--0----------|
    pm----------------------|	    Repeat these 2 riffs in succession 14 times

d|-----------------------------------------------------------------------------|
A|-----------------------------------------------------------------------------|
F|o---------------------------------------------------------------------------o|
C|o---------------------------------------------------------------------------o|
G|-----------0-----------3p0--2p0--0/6-------------------------3p0--2p0--0/6---|
C|--0--0--0-----0--0--0--3p0--2p0--0/6----0--0--0--0--0--0--0--3p0--2p0--0/6---|
    pm----|     pm-|                      pm-------------|

d|-----------------------------------------------------------------------------|
A|-----------------------------------------------------------------------------|
F|-----------------------------------------------------------------------------|
C|-----------------------------------------------------------------------------|
G|-----------0-----------3p0--2p0--0/6--0--0--0--0--0--0--0--0--0--3--3--0--2--|
C|--0--0--0-----0--0--0--3p0--2p0--0/6--0--0--0--0--0--0--0--0--0--3--3--0--2--|
    pm----|     pm-|

d|-----------------------------------------------------------------------------|
A|-----------------------------------------------------------------------------|
F|-----------------------------------------------------------------------------|
C|-----------------------------------------------------------------------------|
G|--0--0/6------------------Repeat-riff-C-x1-then-riff-A4-x8-------------------|
C|--0--0/6---------------------------------------------------------------------|

  Riff F
d|---------------------------------------------------|-------------------------|
A|---------------------------------------------------|-------------------------|
F|o-------------------------------------------------o|-------------------------|
C|o-------------------------------------------------o|-------------------------|
G|--0--------------------------------------------0---|--0---------------0------|
C|--0--0--3--0--5--0--6--0--5--0--3--0--5--0--6--0---|--0---------------0------|
       pm    pm    pm    pm    pm    pm    pm
				           harms-------|
d|-----------------------------------------------------------------------------|
A|-----------------------------------------3--3--------------------------------|
F|------------------------------------------------3----------------------------|
C|-----------------------------------------------------------------------------|
G|--0----------------0--0------------------------------0-----------------------|
C|--0----------------0--0------------------------------0-----------------------|

7.Shoot Me Again
[ Tab from: http://www.guitartabs.cc/tabs/m/metallica/st_anger_tab_ver_18.html ]
Intro (Guitar Kirk) with wah-wah
d----------------------------
A----------------------------
F--x-x-x-x-x-x-x-x-x-x-x-x---
C--x-x-x-x-x-x-x-x-x-x-x-x---
G----------------------------
C----------------------------
 
Guitar 1 (0:19)
d----------------------------
A----------------------------
F----------------------------
C----------------------------  
G--5h6-5h6-5h6-5h6-5h6-5h6---
C--0---0---0---0---0---0-----
 
..then the bass
 
Guitar 1 continued�
d------------------
A------------------
F------------------
C------------------
G--5h6---5h6-5h6---
C--0-----0---0-----
 
 
Riff 2: (0:41)
                      
d-------------------------
A-------------------------
F-------------------------
C-------------------------
G--------6p5--------5h6---
C--0-0-0-0----0-0-0-0-----etc 
PM . . .      . . .
 
Riff 3 = Verse(0:58)
                                                                   (x2)
d----------------------------------------------------------------------
A----------------------------------------------------------------------
F----------------------------------------------------------------------
C----------------------------------------------------------------------
G--0--0-0--0--0--0---0--0-0--0--0--0---1--1-1--1--1--1-5h6-5h6-5h6-0---
C--0--0-0--0--0--0---0--0-0--0--0--0---1--1-1--1--1--1-0---0---0---0---

d----------------------------------------------------------------------
A----------------------------------------------------------------------
F----------------------------------------------------------------------
C----------------------------------------------------------------------
G--0--0-0--0--0--0---0--0-0--0--0--0---1--1-1--1--1--1-5h6-5h6-5h6-0---
C--0--0-0--0--0--0---0--0-0--0--0--0---1--1-1--1--1--1-0---0---0---0---

then (1:15) is riff 2 again

(1:24) riff 3

 
Riff 4 = Pre-Chorus: (1:41)
                                       
d------------------------------------------
A------------------------------------------
F------------------------------------------
C------------------------------------------
G---------------------------------0-3--1---
C---------------------------------0-3--1---
"Shoot me again, I ain't dead yet...."

continued��. (1:59)

d------------------------------------------
A------------------------------------------
F------------------------------------------
C------------------------------------------
G-----00000000-----------------------------
C-----00000000-etc-------------------------
�shoot me again, shoot me again ��

Riff 5 = Chorus: (2:07)
d-----------------------------------------------------------------------
A-----------------------------------------------------------------------
F-----------------------------------------------------------------------
C-----------------------------------------------------------------------
G--0-0---0---0--3-3---3---3--1-1---1---1--5h6-6-5h6-6-5h6-6-6-6-6-6-6---
C--0-0-0-0-0-0--3-3-3-3-3-3--1-1-1-1-1-1--0---0-0---0-0---0-0-0-0-0-0---
�all the shots I take..i spit back at you�
 
d--------------------------------------
A--------------------------------------
F--------------------------------------
C--------------------------------------
G--5h6-5h6-5h6-5h6---5h6-5h6-5h6-5h6---
C--0---0---0---0-----0---0---0---0-----
"All the shots, all the shots..."

8.Sweet Amber

D |--------------------------------------------------------------------------|
A |---------6b---------6b---------6b-----------------------------------------|
F |-5-7-5h7----5-7-5h7----5-7-5h7----5-7-5h7---------------------------------|
C |--------------------------------------------------------------------------|
G |-----------------------------------------x-xx-x---------------------------|
C |-----------------------------------------x-xx-x---------------------------|

D |--------------------------------------------------------------------------|
A |--------------------------------------------------------------------------|
F |--------------------------------------------------------------------------|
C |---------3b---------3b---------3b-----------------------------------------|
G |-3-5-3h5----3-5-3h5----3-5-3h5----3-5-00-00-00-00-00----------------------|
C |-0-0--------0-0--------0-0--------00-00-00-00-00-00----------------------|

D |--------------------------------------------------------------------------|
A |--------------------------------------------------------------------------|
F |--------------------------------------------------------------------------|
C |--------------------------------------------------------------------------|
G |-0---3-7-6--0-0-0-0-0-333-2-----------------------------------------------|
C |-0---3-7-6--0-0-0-0-0-333-2-----------------------------------------------|

D |--------------------------------------------------------------------------|
A |--------------------------------------------------------------------------|
F |--------------------------------------------------------------------------|
C |--------------------------------------------------------------------------|
G |-3--7-6--2----------------------------------------------------------------|
C |-3--7-6--2----------------------------------------------------------------|

D |--------------------------------------------------------------------------|
A |--------------------------------------------------------------------------|
F |--------------------------------------------------------------------------|
C |--------------------------------------------------------------------------|
G |-0-0-0-3-5-0-0-0--0-0-0-3-5-0-0-0--0-0-0-3-5-0-0-0--0-0-0-3-5-0-0-0-------|
C |-0-0-0-3-5-0-0-0--0-0-0-3-5-0-0-0--0-0-0-3-5-0-0-0--0-0-0-3-5-0-0-0-------|

D |--------------------------------------------------------------------------|
A |--------------------------------------------------------------------------|
F |-7----7----7----10-7-9----9----9----10-9----------------------------------|
C |-00000000000000000000000000000000000x--x----------------------------------|
G |------------------------------------8--7----------------------------------|
C |--------------------------------------------------------------------------|

D |--------------------------------------------------------------------------|
A |--------------------------------------------------------------------------|
F |--------------------------------------------------------------------------|
C |--------------------------------------------------------------------------|
G |-3-2-0-3-2-1-0------------------------------------------------------------|
C |-3-2-0-3-2-1-0------------------------------------------------------------|

9.The Unnamed Feeling

Intro

     w/dist
   D|-------------------|-------------------|
   A|-------------------|-------------------|
   F|-------------------|-------------------|
   C|-0-----------------|-0-----------------|
   G|-0---0---0--0-0-0--|-0---0---0--0-0-0--|
   C|-0---0---0--0-0-0--|-0---0---0--0-0-0--|
        PM...........:      PM...........:
     gtr 1 w/dist
 / D|---------------------------------|----------------------------------|
 | A|---------------------------------|----------------------------------|
 | F|---------------------------------|----------------------------------|
 | C|-0-------------------------------|-0--------------------------------|
 | G|-0-------0------0-------0--0--0--|-0--------0------0-------0--0--0--|
 | C|-0-------0------0-------0--0--0--|-0--------0------0-------0--0--0--|
 |           PM....................:           PM.....................:
 |   gtr 2 clean
 | D|---------------------------------|----------------------------------|
 | A|---------------------------------|----------------------------------|
 | F|--------2--2--2---------7--7--7--|---------2--2--2---------5--5--5--|
 | C|--------0--0--0---------5--5--5--|---------0--0--0---------3--3--3--|
 | G|---0----------------3------------|----0----------------3------------|
 \ C|-0---0----------0/3---3----------|--0---0----------0/3---3----------|
     
     gtr w/dist
 / D|---------------------------------|----------------------------------| \
 | A|---------------------------------|----------------------------------| |
 | F|---------------------------------|----------------------------------| |
 | C|--0------------------------------|--0-------------------------------| |
 | G|--0------0------0-------0---0----|--0------0------0--------0----0---| |
 | C|--0------0------0-------0---0----|--0------0------0--------0----0---| |\
 |	      PM.................:            PM.....................:    | >x3 
 |   gtr 2 clean						           |/
 | D|---------------------------------|----------------------------------| |
 | A|---------------------------------|----------------------------------| |
 | F|--------2--2--2---------7--7--7--|---------2--2--2---------5--5--5--| |
 | C|--------0--0--0---------5--5--5--|---------0--0--0---------3--3--3--| |
 | G|---0----------------3------------|----0----------------3------------| |
 \ C|-0---0----------0/3---3----------|--0---0----------0/3---3----------| /


     gtr w/dist
 / D|---------------------------------|----------------------------------| \
 | A|---------------------------------|----------------------------------| |
 | F|---------------------------------|----------------------------------| |
 | C|--0------------------------------|--0-------------------------------| |
 | G|--0------0------0-------0---0----|--0------0------0--------0----0---| |
 | C|--0------0------0-------0---0----|--0------0------0--------0----0---| |
 |           PM..................:            PM.....................:     | 
 |   gtr 2 clean						           |
 | D|---------------------------------|----------------------------------| |
 | A|---------------------------------|----------------------------------| |\
 | F|--------2--2--2---------7--7--7--|---------2--2--2---------5--5--5--| | > 1
 | C|--------0--0--0---------5--5--5--|---------0--0--0---------3--3--3--| |/
 | G|---0----------------3------------|----0----------------3------------| |
 | C|-0---0----------0/3---3----------|--0---0----------0/3---3----------| |
 |								  |
 |   gtr 3 w/dist							  |
 | D|---------------------------------|----------------------------------| |
 | A|---------------------------------|----------------------------------| |
 | F|---------------------------------|----------------------------------| |
 | C|---------------------------------|----------------------------------| |
 | G|-0-0--0-0----------0--0-0--------|-0-0--0-0-----------0--0-0--------| |
 \ C|-0-0--0-0---2b3r2--0--0-0--2b3r2-|-0-0--0-0----2b3r2--0--0-0--2b3r2-| /
    PM.......:         PM....:        PM.......:         PM.....:

    gtrs 1,2 w/dist
  D|------------------------|------------------------| \
  A|------------------------|------------------------| |
  F|------------------------|------------------------| |>3 times
  C|-8---------7---------0--|-8---------7---------0--| |
  G|-8--(0-0)--7--(0-0)--0--|-8--(0-0)--7--(0-0)--0--| |
  C|-8--(0-0)--7--(0-0)--0--|-8--(0-0)--7--(0-0)--0--| /
       PM..:     PM..:          PM..:     PM..:

Lyrics:       

     Been here before 			 Been here before 
 / D|-----------------|-----------------|-----------------|----------------| \
 | A|-----------------|-----------------|-----------------|----------------| |
 | F|-----------------|-----------------|-----------------|----------------| |
 | C|-----------------|-----------------|-----------------|----------------| |
 | G|-0-0-------------|-0-0-------------|-0-0-------------|-0-0------------| |
 | C|-0-0---1b2b1-----|-0-0---1b2b1-----|-0-0---1b2b1-----|-0-0---1b2b1----| |\
 |  PM..:             PM..:             PM..:             PM..:              | >x2 
 |   gtr 2 w/wah							    |/
 | D|-----13b15r13\1--|-----13b15r13\1--|-----13b15r13\1--|-----13b15r13\1-| |
 | A|-----------------|-----------------|-----------------|----------------| |
 | F|-----------------|-----------------|-----------------|----------------| |
 | C|-----------------|-----------------|-----------------|----------------| |
 | G|-0-0-------------|-0-0-------------|-0-0-------------|-0-0------------| |
 \ C|-0-0-------------|-0-0-------------|-0-0-------------|-0-0------------| /
    PM..:             PM..:             PM..:             PM..:

              Been here before                    Been here before 
  / D|-------|-----------------|-----------------|-----------------|----------------| \
  | A|-------|-----------------|-----------------|-----------------|----------------| |
  | F|-3--2--|-----------------|-----------------|-----------------|----------------| |
  | C|-3--2--|-----------------|-----------------|-----------------|----------------| |
  | G|-1--0--|-0-0-------------|-0-0-------------|-0-0-------------|-0-0------------| |
  | C|-------|-0-0---1b2b1-----|-0-0---1b2b1-----|-0-0---1b2b1-----|-0-0---1b2b1----| |
  |	     PM..:             PM..:             PM..:             PM..:	      |
  |           gtr 2 w/wah							      |
  | D|-------|-----13b15r13\1--|-----13b15r13\1--|-----13b15r13\1--|-----13b15r13\1-| |
  | A|-------|-----------------|-----------------|-----------------|----------------| |
  | F|-3--2--|-----------------|-----------------|-----------------|----------------| |
  | C|-3--2--|-----------------|-----------------|-----------------|----------------| |
  | G|-1--0--|-0-0-------------|-0-0-------------|-0-0-------------|-0-0------------| |
  \ C|-------|-0-0-------------|-0-0-------------|-0-0-------------|-0-0------------| /



      gtrs 1,2 w/dist
    D|-------|---------------------------------|---------------------------------|-------|
    A|-------|---------------------------------|---------------------------------|-------|
    F|-3--2--|---------------------------------|---------------------------------|-3--2--|
    C|-3--2--|---------------------------------|---------------------------------|-3--2--|
    G|-1--0--|-0-0--0-0---------0--0-0---------|-0-0--0-0---------0--0-0---------|-1--0--|
    C|-------|-0-0--0-0--2b3r2--0--0-0--2b3r2--|-0-0--0-0--2b3r2--0--0-0--2b3r2--|-------|
              PM......:        PM....:         PM.......:        PM....: 
   VERSE 1
 Been here before couldn't say I liked it_Do I start writing all this down?
 Just let me plug you into my world_Can't you help me be uncrazy?
D|---------------------------------|---------------------------------|-------|
A|---------------------------------|---------------------------------|-------|
F|---------------------------------|---------------------------------|-3--2--|
C|---------------------------------|---------------------------------|-3--2--|
G|-0-0--0-0---------0--0-0---------|-0-0--0-0---------0--0-0---------|-1--0--|
C|-0-0--0-0--2b3r2--0--0-0--2b3r2--|-0-0--0-0--2b3r2--0--0-0--2b3r2--|-------|
  PM......:        PM....:          PM......:        PM....:

 Name this for me, heat the cold air_Take the chill off of my life 
 And if I could I'd turn my eyes_To look inside to see what's comin' 
D|---------------------------------|---------------------------------|         |-------|
A|---------------------------------|---------------------------------|	       |-------|
F|---------------------------------|---------------------------------| 2 times,|-3--2--|
C|---------------------------------|---------------------------------| then--> |-3--2--|
G|-0-0--0-0---------0--0-0---------|-0-0--0-0---------0--0-0---------|         |-1--0--|
C|-0-0--0-0--2b3r2--0--0-0--2b3r2--|-0-0--0-0--2b3r2--0--0-0--2b3r2--|         |-------|
  PM......:        PM....:          PM......:        PM....:
  PRE-CHORUS
   
  It comes alive         It comes alive           It comes alive_ And I die a little more 
D|-----------|-----------|-----------|-----------|-----------|-----------|-----------|
A|-----------|-----------|-----------|-----------|-----------|-----------|-----------|
F|-----------|-----------|-----------|-----------|-----------|-----------|-----------|
C|-----------|-----------|-----------|-----------|-----------|-----------|-----------|
G|-0-0-------|-0-0-------|-0-0-------|-0-0-------|-0-0-------|-0-0-------|-0-0-------|
C|-0-0-1b2b1-|-0-0-1b2b1-|-0-0-1b2b1-|-0-0-1b2b1-|-0-0-1b2b1-|-0-0-1b2b1-|-0-0-1b2b1-|
 PM..:       PM..:       PM..:       PM..:       PM..:       PM..:       PM..: 

  It comes alive         It comes alive          It comes alive Each moment here 
D|-----------|-----------|-----------|-----------|-----------|-----------|-------|
A|-----------|-----------|-----------|-----------|-----------|-----------|-------|
F|-----------|-----------|-----------|-----------|-----------|-----------|-3--2--|
C|-----------|-----------|-----------|-----------|-----------|-----------|-3--2--|
G|-0-0-------|-0-0-------|-0-0-------|-0-0-------|-0-0-------|-0-0-------|-1--0--|
C|-0-0-1b2b1-|-0-0-1b2b1-|-0-0-1b2b1-|-0-0-1b2b1-|-0-0-1b2b1-|-0-0-1b2b1-|-------|
 PM..:       PM..:       PM..:       PM..:       PM..:       PM..:       PM..:

   I die a little more                 I die, I die,  I die a little more
D|---------------------------------|---------------------------------|-------|
A|---------------------------------|---------------------------------|-------|
F|---------------------------------|---------------------------------|-3--2--|
C|---------------------------------|---------------------------------|-3--2--|
G|-0-0--0-0---------0--0-0---------|-0-0--0-0---------0--0-0---------|-1--0--|
C|-0-0--0-0--2b3r2--0--0-0--2b3r2--|-0-0--0-0--2b3r2--0--0-0--2b3r2--|-------|
  PM......:        PM....:          PM......:        PM....:

  CHORUS (gtrs clean or acoustic)

 Then the unnamed feeling                         It comes alive 
D|--------------------------3--3--3-------------------------------------------|
A|--------3--3--3-----------6--6--6---------6--6--6---------------------------|
F|--------2--2--2-----------5--5--5---------5--5--5-----------------5--7-7-5--|
C|--------0--0--0-----5---------------------3--3--3-------------5---5--5-5-5--|
G|---0--------------3---3----------------3-----------8--7--5--3---3-----------|
C|-0---0-------------------------------3---3---------8--7--5------------------|
 

 Then the unnamed feeling                              Takes me away 
D|-------------------------3--3--3----------------------------------|
A|--------3--3--3----------6--6--6---------6--6--6---------8--8--8--|
F|--------2--2--2----------5--5--5---------5--5--5---------7--7--7--|
C|--------0--0--0-----5--------------------3--3--3---------5--5--5--|
G|---0--------------3---3--------------3----------------5-----------|
C|-0---0-----------------------------3---3-----------/5---5---------|

    
    Been here before 			 Been here before 
 / D|-----------------|-----------------|-----------------|----------------| \
 | A|-----------------|-----------------|-----------------|----------------| |
 | F|-----------------|-----------------|-----------------|----------------| |
 | C|-----------------|-----------------|-----------------|----------------| |
 | G|-0-0-------------|-0-0-------------|-0-0-------------|-0-0------------| |
 | C|-0-0---1b2b1-----|-0-0---1b2b1-----|-0-0---1b2b1-----|-0-0---1b2b1----| |\
 |  PM..:             PM..:             PM..:             PM..:              | >2 times
 |   gtr 2 w/wah							     |/
 | D|-----13b15r13\1--|-----13b15r13\1--|-----13b15r13\1--|-----13b15r13\1-| |
 | A|-----------------|-----------------|-----------------|----------------| |
 | F|-----------------|-----------------|-----------------|----------------| |
 | C|-----------------|-----------------|-----------------|----------------| |
 | G|-0-0-------------|-0-0-------------|-0-0-------------|-0-0------------| |
 \ C|-0-0-------------|-0-0-------------|-0-0-------------|-0-0------------| /
    PM..:             PM..:             PM..:             PM..:       

              Been here before                    Been here before 
  / D|-------|-----------------|-----------------|-----------------|----------------| \
  | A|-------|-----------------|-----------------|-----------------|----------------| |
  | F|-3--2--|-----------------|-----------------|-----------------|----------------| |
  | C|-3--2--|-----------------|-----------------|-----------------|----------------| |
  | G|-1--0--|-0-0-------------|-0-0-------------|-0-0-------------|-0-0------------| |
  | C|-------|-0-0---1b2b1-----|-0-0---1b2b1-----|-0-0---1b2b1-----|-0-0---1b2b1----| |
  |	     PM..:             PM..:             PM..:             PM..: 	      |
  |           gtr 2 w/wah							      |
  | D|-------|-----13b15r13\1--|-----13b15r13\1--|-----13b15r13\1--|-----13b15r13\1-| |
  | A|-------|-----------------|-----------------|-----------------|----------------| |
  | F|-3--2--|-----------------|-----------------|-----------------|----------------| |
  | C|-3--2--|-----------------|-----------------|-----------------|----------------| |
  | G|-1--0--|-0-0-------------|-0-0-------------|-0-0-------------|-0-0------------| |
  \ C|-------|-0-0-------------|-0-0-------------|-0-0-------------|-0-0------------| /
             PM..:             PM..:             PM..:             PM..: 


 VERSE 2

 I'm frantic in your soothing arms_I can not sleep in this down filled world 
 I've found safety in this loneliness_But I cannot stand it anymore 
D|---------------------------------|---------------------------------|-------|
A|---------------------------------|---------------------------------|-------|
F|---------------------------------|---------------------------------|-3--2--|
C|---------------------------------|---------------------------------|-3--2--|
G|-0-0--0-0---------0--0-0---------|-0-0--0-0---------0--0-0---------|-1--0--|
C|-0-0--0-0--2b3r2--0--0-0--2b3r2--|-0-0--0-0--2b3r2--0--0-0--2b3r2--|-------|
  PM......:        PM....:          PM......:        PM....:

 Cross my heart and hope not to die_Swallow evil, ride the sky  
 Lose myself in a crowded room_You fool, you fool, it will be here soon  
D|---------------------------------|---------------------------------|         |-------|
A|---------------------------------|---------------------------------|	       |-------|
F|---------------------------------|---------------------------------| 2 times,|-3--2--|
C|---------------------------------|---------------------------------| then--> |-3--2--|
G|-0-0--0-0---------0--0-0---------|-0-0--0-0---------0--0-0---------|         |-1--0--|
C|-0-0--0-0--2b3r2--0--0-0--2b3r2--|-0-0--0-0--2b3r2--0--0-0--2b3r2--|         |-------|
  PM......:        PM....:          PM......:        PM....:

   PRE-CHORUS
   
  It comes alive         It comes alive           It comes alive_ And I die a little more 
D|-----------|-----------|-----------|-----------|-----------|-----------|-----------|
A|-----------|-----------|-----------|-----------|-----------|-----------|-----------|
F|-----------|-----------|-----------|-----------|-----------|-----------|-----------|
C|-----------|-----------|-----------|-----------|-----------|-----------|-----------|
G|-0-0-------|-0-0-------|-0-0-------|-0-0-------|-0-0-------|-0-0-------|-0-0-------|
C|-0-0-1b2b1-|-0-0-1b2b1-|-0-0-1b2b1-|-0-0-1b2b1-|-0-0-1b2b1-|-0-0-1b2b1-|-0-0-1b2b1-|
 PM..:       PM..:       PM..:       PM..:       PM..:       PM..:       PM..: 

  It comes alive         It comes alive          It comes alive Each moment here 
D|-----------|-----------|-----------|-----------|-----------|-----------|-------|
A|-----------|-----------|-----------|-----------|-----------|-----------|-------|
F|-----------|-----------|-----------|-----------|-----------|-----------|-3--2--|
C|-----------|-----------|-----------|-----------|-----------|-----------|-3--2--|
G|-0-0-------|-0-0-------|-0-0-------|-0-0-------|-0-0-------|-0-0-------|-1--0--|
C|-0-0-1b2b1-|-0-0-1b2b1-|-0-0-1b2b1-|-0-0-1b2b1-|-0-0-1b2b1-|-0-0-1b2b1-|-------|
 PM..:       PM..:       PM..:       PM..:       PM..:       PM..:       PM..:

   I die a little more                 I die, I die,  I die a little more
D|---------------------------------|---------------------------------|-------|
A|---------------------------------|---------------------------------|-------|
F|---------------------------------|---------------------------------|-3--2--|
C|---------------------------------|---------------------------------|-3--2--|
G|-0-0--0-0---------0--0-0---------|-0-0--0-0---------0--0-0---------|-1--0--|
C|-0-0--0-0--2b3r2--0--0-0--2b3r2--|-0-0--0-0--2b3r2--0--0-0--2b3r2--|-------|
  PM......:        PM....:          PM......:        PM....:
 
 CHORUS 2 (gtrs clean or acoustic)

 Then the unnamed feeling 				It comes alive
D|--------------------------3--3--3-------------------------------------------|
A|--------3--3--3-----------6--6--6---------6--6--6---------------------------|
F|--------2--2--2-----------5--5--5---------5--5--5-----------------5--7-7-5--|
C|--------0--0--0-----5---------------------3--3--3-------------5---5--5-5-5--|
G|---0--------------3---3----------------3-----------8--7--5--3---3-----------|
C|-0---0-------------------------------3---3---------8--7--5------------------|

 Then the unnamed feeling				Treats me this way 
D|--------------------------3--3--3--------------------------------------------------|
A|--------3--3--3-----------6--6--6---------6--6--6---------5--5--5---------6--6--6--|
F|--------2--2--2-----------5--5--5---------5--5--5---------4--4--4---------5--5--5--|
C|--------0--0--0-----5---------------------3--3--3---------2--2--2---------3--3--3--|
G|---0--------------3---3--------------3----------------2---------------3------------|
C|-0---0-----------------------------3---3------------2---2-----------3---3----------|

 And I wait for this train 			Toes over the line 
D|--------------------------3--3--3-------------------------------------------|
A|--------3--3--3-----------6--6--6---------6--6--6---------------------------|
F|--------2--2--2-----------5--5--5---------5--5--5-----------------5--7-7-5--|
C|--------0--0--0-----5---------------------3--3--3-------------5---5--5-5-5--|
G|---0--------------3---3----------------3-----------8--7--5--3---3-----------|
C|-0---0-------------------------------3---3---------8--7--5------------------|
 
 And then the unnamed feeling 				   Takes me away 
D|--------------------------3--3--3--------------------------------------------------|
A|--------3--3--3-----------6--6--6---------6--6--6---------5--5--5---------6--6--6--|
F|--------2--2--2-----------5--5--5---------5--5--5---------4--4--4---------5--5--5--|
C|--------0--0--0-----5---------------------3--3--3---------2--2--2---------3--3--3--|
G|---0--------------3---3--------------3----------------2---------------3------------|
C|-0---0-----------------------------3---3------------2---2-----------3---3----------|
  
 Takes me  
D|------------------|
A|---------8--8--8--|
F|---------7--7--7--|
C|---------5--5--5--|
G|----5-------------|
C|--5---5-----------|
 
 (gtrs w/dist)
 Then the unnamed feeling		It comes alive 
D|---------------------------------------------------|
A|---------------------------------------------------|
F|--------------5----------------3-2-0------------5--|
C|----------0---5----------------0-0-0----5-5-5-5-5--|
G|-0-0-0-0--0---3---0-3--330--3--0-0-0--3-3-3-3-3-3--|
C|-0-0-0-0--0-------0-3--330--3--0-0-0---------------|
     PM..:          PM.....:            PM......:

 Then the unnamed feeling 	  Takes me away   yeah           Takes me away 
D|-----------------------------------------------------------------------------------------|
A|-----------------------------------------------------------------------------------------|
F|--------------5--------------------------------------------------------------------------|
C|--------------5----------------2------2------2----3------3------3----5------5------5-----|
G|-0-0-0-0--0---3---0-3--330--3--2------2------2----3------3------3----5------5------5-----|
C|-0-0-0-0--0-------0-3--330--3--2-2222-2-2222-2-22-3-3333-3-3333-3-33-5-5555-5-5555-5-55--|
      PM....:       PM......:    PM...:......:....:......:......:....:......:......:....:


   BRIDGE 1

  gtr 1 
D|---------------------------------| \
A|---------------------------------| |
F|---------------------------------| |
C|---------------------------------| |
G|-0-0--0-0---3-2---0-0--0-0--3-2--| |
C|-0-0--0-0---3-2---0-0--0-0--3-2--| |
  Pm............................:    |\
  				     | > 4 times
  gtr 2                              |/
D|---------------------------------| |
A|-----------9---------------------| |
F|-----------11b13-----------------| |
C|---------------------------------| |
G|---------------------------------| | 
C|---------------------------------| /

  gtrs 1,2
D|----------------|----------------|----------------|----------------|
A|----------------|----------------|----------------|----------------|
F|----------------|----------------|----------------|----------------|
C|----------------|----------------|----------------|----------------|
G|-0-0--0-0--3-2--|-0-0--0-0--3-2--|-0-0--0-0--3-2--|-0-0--0-0--3-2--|
C|-0-0--0-0--3-2--|-0-0--0-0--3-2--|-0-0--0-0--3-2--|-0-0--0-0--3-2--|
  PM...........:................:................:................:

    Get the *** out of here I just wanna get the *** away from me 
    I rage, I glaze, I hurt, I hate It hate it all, why? Why? Why me?
    I cannot sleep wth a head like this I wanna cry, I wanna scream 
 / D|----------------|----------------|----------------|-----------------|
 | A|----------------|----------------|----------------|-----------------|
 | F|----------------|----------------|----------------|-----------------|
 | C|----------------|----------------|----------------|-----------------|
 | G|-0-0--0-0--3-2--|-0-0--0-0--3-2--|-0-0--0-0--3-2--|-0-0--0-0--3-2---|
 | C|-0-0--0-0--3-2--|-0-0--0-0--3-2--|-0-0--0-0--3-2--|-0-0--0-0--3-2---|
 |   PM...........:................:................:................:
 |   gtr 2 clean
 | D|---------------------------------|----------------------------------|
 | A|---------------------------------|----------------------------------|
 | F|--------2--2--2---------7--7--7--|---------2--2--2---------5--5--5--|
 | C|--------0--0--0---------5--5--5--|---------0--0--0---------3--3--3--|
 | G|---0----------------3------------|----0----------------3------------|
 \ C|-0---0----------0/3---3----------|--0---0----------0/3---3----------|
    
    rage, I glaze, I hurt, I hate    I wanna hate it all away 
  D|---------------------------------|----------------------------------|-----|
  A|---------------------------------|----------------------------------|-----|
  F|--------2--2--2---------7--7--7--|---------2--2--2---------5--5--5--|-3-2-|
  C|--------0--0--0---------5--5--5--|---------0--0--0---------3--3--3--|-3-2-|
  G|---0----------------3------------|----0----------------3------------|-1-0-|
  C|-0---0----------0/3---3----------|--0---0----------0/3---3----------|-----|


   BRIDGE 2

D|--------------|---------|
A|--------------|---------| \
F|--------------|--3---2--|  > 3 times
C|--------------|--3---2--| /
G|------0--0-0--|--1---0--|
C|-3p0--0--0-0--|---------|
       PM....:

D|------------------------------|---------|
A|------------------------------|---------|
F|------------------------------|--3---2--|
C|------------------------------|--3---2--|
G|---8---7---0-----8---7---0-0--|--1---0--|
C|-0-8-0-7-0-0---0-8-0-7-0-0-0--|---------|
 PM.   .   .     .   .   ....:

D|--------------|---------|
A|--------------|---------| \
F|--------------|--3---2--|  > 2 times
C|--------------|--3---2--| /
G|------0--0-0--|--1---0--|
C|-3p0--0--0-0--|---------|
       PM....:

D|--------------|--------------|--------------|--------------|---------|
A|--------------|--------------|--------------|--------------|---------|
F|--------------|--------------|--------------|--------------|--3---2--|
C|--------------|--------------|--------------|--------------|--3---2--|
G|------0--0-0--|------0--0-0--|------0--0-0--|------0--0-0--|--1---0--|
C|-3p0--0--0-0--|-3p0--0--0-0--|-3p0--0--0-0--|-3p0--0--0-0--|---------|
       PM....:        PM....:        PM....:        PM....:

     gtr 2 w/wah
 / D|------13b15r13\1-----|------13b15r13\1-----|------13b15r13\1-----|------13b15r13\1-----| \
 | A|---------------------|---------------------|---------------------|---------------------| |
 | F|---------------------|---------------------|---------------------|---------------------| |
 | C|---------------------|---------------------|---------------------|---------------------| |
 | G|---------------------|---------------------|---------------------|---------------------| |
 | C|-0000----------------|-0000----------------|-0000----------------|-0000----------------| | \
 |   PM..:                PM...:                PM...:                PM...:		      |  > 2 times
 |   gtr 1 w/dist									      | /
 | D|---------------------|---------------------|---------------------|---------------------| |
 | A|---------------------|---------------------|---------------------|---------------------| |
 | F|---------------------|---------------------|---------------------|---------------------| |
 | C|---------------------|---------------------|---------------------|---------------------| |
 | G|---------------------|---------------------|---------------------|---------------------| | 
 \ C|-0000---1b2b1--------|-0000---1b2b1--------|-0000---1b2b1--------|-0000---1b2b1--------| /
     PM..:                PM...:                PM...:                PM...:

  gtr 2 w/wah
 / D|------13b15r13\1--15\---|------13b15r13\1--15\---|------13b15r13\1--15\--13\--15\| 
 | A|------------------------|------------------------|-------------------------------| 
 | F|------------------------|------------------------|-------------------------------| 
 | C|------------------------|------------------------|-------------------------------| 
 | G|------------------------|------------------------|-------------------------------| 
 | C|-0000-------------------|-0000-------------------|-0000--------------------------| 
 |  PM...:                   PM...:                   PM...:
 |
 |   gtr 1 w/dist									       
 | D|------------------------|------------------------|-------------------------------| 
 | A|------------------------|------------------------|-------------------------------| 
 | F|------------------------|------------------------|-------------------------------| 
 | C|------------------------|------------------------|-------------------------------| 
 | G|------------------------|------------------------|-------------------------------|  
 \ C|-0000---1b2b1-----------|-0000---1b2b1-----------|-0000---1b2b1--1b2b1--1b2b1----|
    PM...:                   PM...:                   PM...:
D|-----------|-----------|-----------|-----------|
A|-----------|-----------|-----------|-----------|
F|-----------|-----------|-----------|-----------|
C|-----------|-----------|-----------|-----------|
G|-0-0-------|-0-0-------|-0-0-------|-0-0-------|
C|-0-0-1b2b1-|-0-0-1b2b1-|-0-0-1b2b1-|-0-0-1b2b1-|
 PM..:       PM..:       PM..:       PM..: 

   LAST CHORUS

         Then the unnamed feeling      It comes alive 
D|---------------------------------------------------|
A|---------------------------------------------------|
F|--------------5----------------3-2-0------------5--|
C|----------0---5----------------0-0-0----5-5-5-5-5--|
G|-0-0-0-0--0---3---0-3--330--3--0-0-0--3-3-3-3-3-3--|
C|-0-0-0-0--0-------0-3--330--3--0-0-0---------------|
     PM..:          PM........:          PM.....: 
 
  Then the unnamed feeling         Treats me this way 
D|----------------------------------------------------------------|
A|----------------------------------------------------------------|
F|--------------5-------------------------------------------------|
C|--------------5----------------2------2------2----3---2-3-5-3-2-|
G|-0-0-0-0--0---3---0-3--330--3--2------2------2----3---2-3-5-3-2-|
C|-0-0-0-0--0-------0-3--330--3--2-2222-2-2222-2-22-3---2-3-5-3-2-|
     PM....:        PM......:     PM...............:

  And I wait for this train     Toes over the line 
D|---------------------------------------------------|
A|---------------------------------------------------|
F|--------------5----------------3-2-0------------5--|
C|----------0---5----------------0-0-0----5-5-5-5-5--|
G|-0-0-0-0--0---3---0-3--330--3--0-0-0--3-3-3-3-3-3--|
C|-0-0-0-0--0-------0-3--330--3--0-0-0---------------|
      PM...:       PM......:             PM.....:

  And then the unnamed feeling         Takes me away   yeah           Takes me away
D|-----------------------------------------------------------------------------------------|
A|-----------------------------------------------------------------------------------------|
F|--------------5--------------------------------------------------------------------------|
C|--------------5----------------2------2------2----3------3------3----5------5------5-----|
G|-0-0-0-0--0---3---0-3--330--3--2------2------2----3------3------3----5------5------5-----|
C|-0-0-0-0--0-------0-3--330--3--2-2222-2-2222-2-22-3-3333-3-3333-3-33-5-5555-5-5555-5-55--|
     PM.....:        PM.....:     PM....................................................:

                    Then the unnamed feeling                     It comes alive 
D|--------------------------3--3--3-------------------------------------------|
A|--------3--3--3-----------6--6--6---------6--6--6---------------------------|
F|--------2--2--2-----------5--5--5---------5--5--5-----------------5--7-7-5--|
C|--------0--0--0-----5---------------------3--3--3-------------5---5--5-5-5--|
G|---0--------------3---3----------------3-----------8--7--5--3---3-----------|
C|-0---0-------------------------------3---3---------8--7--5------------------|
       
           Then the unnamed feeling           Takes me away           
D|-------------------------3--3--3----------------------------------|
A|--------3--3--3----------6--6--6---------6--6--6---------8--8--8--|
F|--------2--2--2----------5--5--5---------5--5--5---------7--7--7--|
C|--------0--0--0-----5--------------------3--3--3---------5--5--5--|
G|---0--------------3---3--------------3----------------5-----------|
C|-0---0-----------------------------3---3-----------/5---5---------|

10.Purify

-|--------------------------------|-----------------------------------------|-
-|--------------------------------|-----------------------------------------|-
-|--------------------------------|-----------------------------------------|-
-|--0-0-3-0-3-3-0-3--3-0-3h5-5-0--|-----------------------------------------|-
-|--0-0-3-0-3-3-0-3--3-0-3h5-5-0--|-----------------------------------------|-
-|--0-0-3-0-3-3-0-3--3-0-3h5-5-0--|-----------------------------------------|-
  pm. .   .     .      .     .                                                

-|--------------------------------------------------------------------------|-
-|--------------------------------------------------------------------------|-
-|--------------------------------------------------------------------------|-
-|--0-0----0-0----0-0----0-0----0-0----0-0----0-0----0-0--------------------|-
-|--0-0----0-0----0-0----0-0----0-0----0-0----0-0----0-0--------------------|-
-|--0-0----0-0----0-0----0-0----0-0----0-0----0-0----0-0--------------------|-
  pm. .    . .    . .    . .    . .    . .    . .    . .                      

-|--------------------------------------------------------------------------|-
-|--------------------------------------------------------------------------|-
-|--------------------------------------------------------------------------|-
-|--0-5-6-0-7-0----0-5-6-0-7-0----0-5-6-0-7-0----0-5-6-0-7-0----------------|-
-|--0-5-6-0-7-0----0-5-6-0-7-0----0-5-6-0-7-0----0-5-6-0-7-0----------------|-
-|--0-5-6-0-7-0----0-5-6-0-7-0----0-5-6-0-7-0----0-5-6-0-7-0----------------|-
    . . . .        . . . .        . . . .        . . . .                      

-|--------------------------------------------------------------------------|-
-|--------------------------------------------------------------------------|-
-|--------------------------------------------------------------------------|-
-|--7-7-7-7-7-7-7-7-6-6-6-6-6-6-6-6-5-5-5-5-5-5-5-5-6-6-6-6-6-6-6-6---------|-
-|--7-7-7-7-7-7-7-7-6-6-6-6-6-6-6-6-5-5-5-5-5-5-5-5-6-6-6-6-6-6-6-6---------|-
-|--7-7-7-7-7-7-7-7-6-6-6-6-6-6-6-6-5-5-5-5-5-5-5-5-6-6-6-6-6-6-6-6---------|-
  Chorus                                                                      

-|------------------------------------|-------------------------------------|-
-|------------------------------------|-------------------------------------|-
-|------------------------------------|-------------------------------------|-
-|------------------------------------|-------------------------------------|-
-|--0-1-2----0-1-2----0-1-2----0-1-2--|-------------------------------------|-
-|--0-1-2----0-1-2----0-1-2----0-1-2--|-------------------------------------|-
                                                                              

-|--------------------------------|-----------------------------------------|-
-|--------------------------------|-----------------------------------------|-
-|--------------------------------|-----------------------------------------|-
-|--0-0-3-0-3-3-0-3--3-0-3h5-5-0--|-----------------------------------------|-
-|--0-0-3-0-3-3-0-3--3-0-3h5-5-0--|-----------------------------------------|-
-|--0-0-3-0-3-3-0-3--3-0-3h5-5-0--|-----------------------------------------|-
    . .   .     .      .     .                                                

-|--------------------------------------------------------------------------|-
-|--------------------------------------------------------------------------|-
-|--------------------------------------------------------------------------|-
-|--0-5-6-0-7-0----0-5-6-0-7-0----0-5-6-0-7-0----0-5-6-0-7-0----------------|-
-|--0-5-6-0-7-0----0-5-6-0-7-0----0-5-6-0-7-0----0-5-6-0-7-0----------------|-
-|--0-5-6-0-7-0----0-5-6-0-7-0----0-5-6-0-7-0----0-5-6-0-7-0----------------|-
    . . . .        . . . .        . . . .        . . . .                      

-|--------------------------------------------------------------------------|-
-|--------------------------------------------------------------------------|-
-|--------------------------------------------------------------------------|-
-|--7-7-7-7-7-7-7-7-6-6-6-6-6-6-6-6-5-5-5-5-5-5-5-5-6-6-6-6-6-6-6-6---------|-
-|--7-7-7-7-7-7-7-7-6-6-6-6-6-6-6-6-5-5-5-5-5-5-5-5-6-6-6-6-6-6-6-6---------|-
-|--7-7-7-7-7-7-7-7-6-6-6-6-6-6-6-6-5-5-5-5-5-5-5-5-6-6-6-6-6-6-6-6---------|-
  Chorus                                                                      

-|------------------------------------|-------------------------------------|-
-|------------------------------------|-------------------------------------|-
-|------------------------------------|-------------------------------------|-
-|--0-1-2----0-1-2----0-1-2----0-1-2--|-------------------------------------|-
-|--0-1-2----0-1-2----0-1-2----0-1-2--|-------------------------------------|-
-|--0-1-2----0-1-2----0-1-2----0-1-2--|-------------------------------------|-
                                                                              

-|--------------------------------|-----------------------------------------|-
-|--------------------------------|-----------------------------------------|-
-|--------------------------------|-----------------------------------------|-
-|--0-0-3-0-3-3-0-3--3-0-3h5-5-0--|-----------------------------------------|-
-|--0-0-3-0-3-3-0-3--3-0-3h5-5-0--|-----------------------------------------|-
-|--0-0-3-0-3-3-0-3--3-0-3h5-5-0--|-----------------------------------------|-
    . .   .     .      .     .                                                

-|--------------------------------------------------------------------------|-
-|--------------------------------------------------------------------------|-
-|--------------------------------------------------------------------------|-
-|--0-0----0-0----0-0----0-0----0-0----0-0----0-0----0-0--------------------|-
-|--0-0----0-0----0-0----0-0----0-0----0-0----0-0----0-0--------------------|-
-|--0-0----0-0----0-0----0-0----0-0----0-0----0-0----0-0--------------------|-
    . .    . .    . .    . .    . .    . .    . .    . .                      

-|--------------------------------------------------------------------------|-
-|--------------------------------------------------------------------------|-
-|--------------------------------------------------------------------------|-
-|--------------------------------------------------------------------------|-
-|--------------------------------------------------------------------------|-
-|--0-0-3-0-3-0-3-3-0-3-0-3-0-3-3-0-3-0-3-0-3-3-0-3-0-3-0-3-3---------------|-
    . . . . . . . . . . . . . . . . . . . . . . . . . . . . .                 

-|---------------------------------------|----------------------------------|-
-|---------------------------------------|----------------------------------|-
-|---------------------------------------|----------------------------------|-
-|---------------------------------------|----------------------------------|-
-|---------------------------------------|----------------------------------|-
-|--0-0-12-0-12-12-0-12-12-0-12-0-12h15--|----------------------------------|-
                                                                              

-|---------------------------------------------------|----------------------|-
-|---------------------------------------------------|----------------------|-
-|---------------------------------------------------|----------------------|-
-|--7----3--3h5-x--3--3h5-x--0-0---------------------|----------------------|-
-|--7----3--3h5-x--3--3h5-x--0-0----12-0-12-0-12h15--|----------------------|-
-|--7----3--3h5-x--3--3h5-x--0-0----12-0-12-0-12h15--|----------------------|-
                                                                              

-|------------------------------------------------------|-------------------|-
-|------------------------------------------------------|-------------------|-
-|------------------------------------------------------|-------------------|-
-|--3-x-3-3h5-0--3-x-3-3h5-0--3-x-3-3h5-0--3-x-3-3h5-0--|-------------------|-
-|--3-x-3-3h5-0--3-x-3-3h5-0--3-x-3-3h5-0--3-x-3-3h5-0--|-------------------|-
-|--3-x-3-3h5-0--3-x-3-3h5-0--3-x-3-3h5-0--3-x-3-3h5-0--|-------------------|-
                                                                              

-|--------------------------------------------------------------------------|-
-|--------------------------------------------------------------------------|-
-|--------------------------------------------------------------------------|-
-|--------------------------------------------------------------------------|-
-|--------3--5-------------3--5-------------3--5-------------3--5-----------|-
-|--0h3h5------0-0-0-0h3h5------0-0-0-0h3h5------0-0-0-0h3h5------0-0-0-----|-
  Ending       . . .            . . .            . . .            . . .       

-|--------------------------------------------------------------------------|-
-|--------------------------------------------------------------------------|-
-|--5-5-5----------5-5-5----------------------------------------------------|-
-|--3-3-3----------3-3-3----------------------------------------------------|-
-|--3-3-3--5-------3-3-3--5-------------------------------------------------|-
-|-----------0-0-0----------0-0-0-------------------------------------------|-
  Tail end   . . .          . . .

11.All Within My Hands

D |--------------------------------------------------------------------------|
A |--------------------------------------------------------------------------|
F |--------------------------------------------------------------------------|
C |-7-7-0-0-6-6-0-0-5-5-3--7-7-0-0-6-6-0-0-5-5-3-----------------------------|
G |-7-7-0-0-6-6-0-0-5-5-3--7-7-0-0-6-6-0-0-5-5-3-----------------------------|
C |-7-7-0-0-6-6-0-0-5-5-3--7-7-0-0-6-6-0-0-5-5-3-----------------------------|

D |--------------------------------------------------------------------------|
A |--------------------------------------------------------------------------|
F |--------------------------------------------------------------------------|
C |-7-7-0-0-6-6-0-0--7-7-0-0-6-6-0-0--7-7-0-0-6-6-0-0--7-7-0-0-6-6-0-0-------|
G |-7-7-0-0-6-6-0-0--7-7-0-0-6-6-0-0--7-7-0-0-6-6-0-0--7-7-0-0-6-6-0-0-------|
C |-7-7-0-0-6-6-0-0--7-7-0-0-6-6-0-0--7-7-0-0-6-6-0-0--7-7-0-0-6-6-0-0-------|

D |--------------------------------------------------------------------------|
A |--------------------------------------------------------------------------|
F |--------------------------------------------------------------------------|
C |-7-7-0-0-6-6-0-0-xxxx-7-7-0-0-6-6-0-0-xxx---------------------------------|
G |-7-7-0-0-6-6-0-0-xxxx-7-7-0-0-6-6-0-0-xxx---------------------------------|
C |-7-7-0-0-6-6-0-0-xxxx-7-7-0-0-6-6-0-0-xxx---------------------------------|

D |--------------------------------------------------------------------------|
A |--------------------------------------------------------------------------|
F |--------------------------------------------------------------------------|
C |-7-7-0-0-6-6-0-0-5-7-7-0-0-6-6-0-0--7-7-0-0-6-6-0-0-3-7-7-0-0-6-6-0-0-----|
G |-7-7-0-0-6-6-0-0-5-7-7-0-0-6-6-0-0--7-7-0-0-6-6-0-0-3-7-7-0-0-6-6-0-0-----|
C |-7-7-0-0-6-6-0-0---7-7-0-0-6-6-0-0--7-7-0-0-6-6-0-0---7-7-0-0-6-6-0-0-----|

D |--------------------------------------------------------------------------|
A |--------------------------------------------------------------------------|
F |--------------------------------------------------------------------------|
C |-7-7-0-0-6-6-0-0--7-7-0-0-6-6-0-0--7-7-0-0-6-6-0-0--3----7-7-0-0-6-6-0-0--|
G |-7-7-0-0-6-6-0-0--7-7-0-0-6-6-0-0--7-7-0-0-6-6-0-0--3----7-7-0-0-6-6-0-0--|
C |-7-7-0-0-6-6-0-0--7-7-0-0-6-6-0-0--7-7-0-0-6-6-0-0--3----7-7-0-0-6-6-0-0--|

D |-8-8-8-8-8-8-5b-5-5-5-3-3-3-3-3-3-3-3-3\1-1-1-1-1-1-----------------------|
A |--------------------------------------------------------------------------|
F |--------------------------------------------------------------------------|
C |--------------------------------------------------------------------------|
G |--------------------------------------------------------------------------|
C |--------------------------------------------------------------------------|

Not sure about this one:
D |--------------------------------------------------------------------------|
A |--------------------------------------------------------------------------|
F |--------------------------------------------------------------------------|
C |--------------------------------------------------------------------------|
G |--------------------------------------------------------------------------|
C |-3-5-3-5-3-5-3-5-0-1-0-1-0-1-0-1-3-5-3-5-3-5-3-5-0-1-0-1-0-1-0-1----------|

D |-----5-------5-------6-------6-------6-------6--------5-------------------|
A |---6---6---6---6---5---5---5---5---8---8---8----8---6---6-6p5---6p5-------|
F |-7-------7-------7-------7-------7-------7--------7-----------7-----7-5-7-|
C |--------------------------------------------------------------------------|
G |--------------------------------------------------------------------------|
C |--------------------------------------------------------------------------|

D |--------------------------------------------------------------------------|
A |--------------------------------------------------------------------------|
F |--------------------------------------------------------------------------|
C |-5/7-7-7-7-7-7-7-7-7\5-5-5-5-5-5-5-5-5/8-8-8-8-8-8-8-8-8\7-7-7-7-7-7-7-7--|
G |-5/7-7-7-7-7-7-7-7-7\5-5-5-5-5-5-5-5-5/8-8-8-8-8-8-8-8-8\7-7-7-7-7-7-7-7--|
C |-5/7-7-7-7-7-7-7-7-7\5-5-5-5-5-5-5-5-5/8-8-8-8-8-8-8-8-8\7-7-7-7-7-7-7-7--|

D |--------------------------------------------------------------------------|
A |--------------------------------------------------------------------------|
F |--------------------------------------------------------------------------|
C |-5/7-7-7-7-7-7-7-7-7\5-5-5-5-5-5-5-5-5/8-8-8-8-8-8-8-8-7-5-8-7-5----------|
G |-5/7-7-7-7-7-7-7-7-7\5-5-5-5-5-5-5-5-5/8-8-8-8-8-8-8-8-7-5-8-7-5----------|
C |-5/7-7-7-7-7-7-7-7-7\5-5-5-5-5-5-5-5-5/8-8-8-8-8-8-8-8-7-5-8-7-5----------|

D |--------------------------------------------------------------------------|
A |--------------------------------------------------------------------------|
F |--------------------------------------------------------------------------|
C |-5-6-7-0-5-6-7-0-5-6-7-0-5-3-0--5-6-7-0-5-6-7-0-5-6-7-0-5-3-0-------------|
G |-5-6-7-0-5-6-7-0-5-6-7-0-5-3-0--5-6-7-0-5-6-7-0-5-6-7-0-5-3-0-------------|
C |-5-6-7-0-5-6-7-0-5-6-7-0-5-3-0--5-6-7-0-5-6-7-0-5-6-7-0-5-3-0-------------|

D |--------------------------------------------------------------------------|
A |--------------------------------------------------------------------------|
F |--------------------------------------------------------------------------|
C |-5-6-7-0--5-6-3-5/6\5-3-5-5/6\5--5-6-7-0--5-6-3-5/6\5-3-5-5/6\5---------|
G |-5-6-7-0--5-6-3-5/6\5-3-5-5/6\5--5-6-7-0--5-6-3-5/6\5-3-5-5/6\5---------|
C |-5-6-7-0--5-6-3-5/6\5-3-5-5/6\5--5-6-7-0--5-6-3-5/6\5-3-5-5/6\5---------|
 
D |--------------------------------------------------------------------------|
A |--------------------------------------------------------------------------|
F |-----------------------2-0-----------------------2-0----------------------|
C |-7-7-0-0-6-6-0-0-5-5-3-----7-7-0-0-6-6-0-0-5-5-3--------------------------|
G |-7-7-0-0-6-6-0-0-5-5-3-----7-7-0-0-6-6-0-0-5-5-3--------------------------|
C |-7-7-0-0-6-6-0-0-5-5-3-----7-7-0-0-6-6-0-0-5-5-3--------------------------|

D |-----10-10-10-10----------------------------------------------------------|
A |---------------------10-10-10-10------------------------------------------|
F |--------------------------------------------------------------------------|
C |-0-0-------------0-0-------------0-0--------------------------------------|
G |-0-0-------------0-0-------------0-0--------------------------------------|
C |-0-0-------------0-0-------------0-0--------------------------------------|

D |--------------------------------------------------------------------------|
A |--------------------------------------------------------------------------|
F |--------------------------------------------------------------------------|
C |-7-7-0-0-6-6-0-0-5--7-7-0-0-6-6-0-0----7-7-0-0-6-6-0-0----7-7-0-0-6-6-0-0-|
G |-7-7-0-0-6-6-0-0----7-7-0-0-6-6-0-0----7-7-0-0-6-6-0-0----7-7-0-0-6-6-0-0-|
C |-7-7-0-0-6-6-0-0----7-7-0-0-6-6-0-0----7-7-0-0-6-6-0-0----7-7-0-0-6-6-0-0-|

D |--------------------------------------------------------------------------|
A |--------------------------------------------------------------------------|
F |--------------------------------------------------------------------------|
C |--------------------------------------------------------------------------|
G |--------------------------------------------------------------------------|
C |-5/7-00-00-00-0-3/5-7\5-3--5/7-00-00-00-0-3/5-7\5-3-----------------------|

D |--------------------------------------------------------------------------|
A |--------------------------------------------------------------------------|
F |--------------------------------------------------------------------------|
C |-5-5/6\5-3-7-0-0-0-0-0-0-5-5/6\5-3-7-0-0-0-0-0-0--------------------------|
G |-5-5/6\5-3-7-0-0-0-0-0-0-5-5/6\5-3-7-0-0-0-0-0-0--------------------------|
C |-5-5/6\5-3-7-0-0-0-0-0-0-5-5/6\5-3-7-0-0-0-0-0-0--------------------------|

D |--------------------------------------------------------------------------|
A |--------------------------------------------------------------------------|
F |--------------------------------------------------------------------------|
C |-5-6-7-0-5-6-7-0-5-6-3-3-3-3-3--5-6-7-0-5-6-7-0-5-6-3-3-3-3-3-------------|
G |-5-6-7-0-5-6-7-0-5-6-3-3-3-3-3--5-6-7-0-5-6-7-0-5-6-3-3-3-3-3-------------|
C |-5-6-7-0-5-6-7-0-5-6-3-3-3-3-3--5-6-7-0-5-6-7-0-5-6-3-3-3-3-3-------------|

D |--------------------------------------------------------------------------|
A |--------------------------------------------------------------------------|
F |--------------------------------------------------------------------------|
C |-5-5/6\5-3-5-7-0-0-0-5-5/6\5-3-5-7-0-0-0----------------------------------|
G |-5-5/6\5-3-5-7-0-0-0-5-5/6\5-3-5-7-0-0-0----------------------------------|
C |-5-5/6\5-3-5-7-0-0-0-5-5/6\5-3-5-7-0-0-0----------------------------------|

D |--------------------------------------------------------------------------|
A |--------------------------------------------------------------------------|
F |--------------------------------------------------------------------------|
C |-5-6-7-0-5-6-7-0-5-6-0-0-0-0-0-0-5-6-7-0-5-6-7-0-5-6-0-0-0-0-0-0----------|
G |-5-6-7-0-5-6-7-0-5-6-0-0-0-0-0-0-5-6-7-0-5-6-7-0-5-6-0-0-0-0-0-0----------|
C |-5-6-7-0-5-6-7-0-5-6-0-0-0-0-0-0-5-6-7-0-5-6-7-0-5-6-0-0-0-0-0-0----------|

D |--------------------------------------------------------------------------|
A |--------------------------------------------------------------------------|
F |--------------------------------------------------------------------------|
C |-5-6-7-0-5-6-7-0-5-6-7-7-7-7-7-7------------------------------------------|
G |-5-6-7-0-5-6-7-0-5-6-7-7-7-7-7-7------------------------------------------|
C |-5-6-7-0-5-6-7-0-5-6-7-7-7-7-7-7------------------------------------------|

D |-------|
A |-------|
F |-------|
C |-7-6-3-|
G |-7-6-3-|
C |-7-6-3-|

D |------------------------------------|
A |-8brbrbrbrbrbrbrbrbrbrbrbr--6-8/9---|
F |----------------------------5-7/8---|
C |----------------------------3-6/7---|
G |------------------------------------|
C |------------------------------------|
Comments