Metallica - St Anger Chords & Tabs

 

St Anger Chords & Tabs

Metallica Chords & Tabs

Version: 13 Type: Tab 0 ratings
1 star 2 stars 3 stars 4 stars 5 stars
comments

St Anger Tab

Song: St. Anger
Artist: MetallicA
Album: St. Anger
 
Drop C Tuning
 
Main Riff:
d-------------------------------------------
A-------------------------------------------
F-------------------------------------------
C---------------------------------5-5-5-5---
G---------------------------------3-3-3-3---
C--0-1-2--1-1--3-2-0--2-1-0--0-0------------
PM . . .  . .  . . .  . . .  . .
 
Fill 1:
d----------------------------------
A----------------------------------
F----------------------------------
C----------------------------------
G--3-2-1--3-2-1--3-2-1--3-2-1--0---
C--3-2-1--3-2-1--3-2-1--3-2-1--0---
PM . . .  . . .  . . .  . . .
 
Verse (two guitars):
d----------0----1-----------------
A-----1--------------3-----1--3---
F-------0----0----2-----0---------
C--0------------------------------
G---------------------------------
C---------------------------------
"St. Anger 'round my neck..."
 
(tremolo picking)
d--------------------------------------
A--------------------------------------
F--------------------------------------
C--7----------------5------------------
G--5----------------3---------8----7---
C-----------------------------8----7---
"You flush it out..."
 
Fill 2:
Guitar 1
d---------------------------------
A---------------------------------
F--7------------------------------
C--7------------------5-----------
G--5-------0-0--0-0---3----8--7---
C----------0-0--0-0--------8--7---
PM         . .  . .
 
Guitar 2
d-----------------------------------
A-----------------------------------
F--7--------------------------------
C--x------------------5----15--14---
G--5-------0-0--0-0---3----13--12---
C----------0-0--0-0-----------------
PM         . .  . .
 
Chorus (tremolo picking)
d---------------------------------------
A---------------------------------------
F---------------------------------------
C--12----------------10-----------------
G--10-----------------8--------8----7---
C------------------------------8----7---
"Fuck it all..."
 
Fill 3:
d-------------------------------
A-------------------------------
F--7----------------------------
C--7----------------------------
G--5-------0-0--0-0--0-0--0-0---
C----------0-0--0-0--0-0--0-0---
PM         . .  . .  . .  . .
 
Main Riff
 
Fill 1
 
Verse
 
Fill 2
 
Chorus
 
Fill 3
 
Main Riff (as played in Intro)
 
Main Riff over:
"And I want my anger to be healthy..."
 
Fill 1
 
Chorus
 
Fill 3
 
End on:
d--------------------------------------------
A--------------------------------------------
F--------------------------------------------
C-------------------------------5-5-5-5------
G-------------------------------3-3-3-3--0---
C--1-2--1-1--3-2-0--2-1-0--0-0-----------0---
PM . .  . .  . . .  . . .  . .
[ Tab from: http://www.guitartabs.cc/tabs/m/metallica/st_anger_tab_ver_13.html ]
Comments