Metallica - St Anger Chords & Tabs

 

St Anger Chords & Tabs

Metallica Chords & Tabs

Version: 10 Type: Tab 0 ratings
1 star 2 stars 3 stars 4 stars 5 stars
comments

St Anger Tab

Metallica - St. Anger
By: Jason Shaw
These are the main parts of the song except for the verses. I'll
figure them out later.


Palm Mute = .

D|---------------------------------|
A|---------------------------------|
F|---------------------------------|
C|---------------------------------|
G|--------------------------3-3-3--|
C|-0-1-2-0-2-1-0-2-1-0-1-2---------|
   . . . . . . . . . . . . 


D|----------------------------------|
A|----------------------------------|
F|----------------------------------|
C|-0-1-2-0-2-1-0-2-1-0-1-2--3-3-3-3-|
G|-0-1-2-0-2-1-0-2-1-0-1-2--3-3-3-3-|
C|-0-1-2-0-2-1-0-2-1-0-1-2----------|
   . . . .   . .   . . . . 

[ Tab from: http://www.guitartabs.cc/tabs/m/metallica/st_anger_tab_ver_10.html ]
D|----------------------------------|
A|----------------------------------|
F|----------------------------------|
C|-0-1-2-0-2-1-0-2-1-0-1-2--3-3-3-3-|
G|-0-1-2-0-2-1-0-2-1-0-1-2--3-3-3-3-|
C|-0-1-2-0-2-1-0-2-1-0-1-2----------|


D|---------------------------------------------------------|
A|---------------------------------------------------------|
F|-7-7-7-7-7-7-7-7-7-7-7-7-7-7-7-7--5-5-5-5-5-5-5-5--9-----|
C|-x-x-x-x-x-x-x-x-x-x-x-x-x-x-x-x--x-x-x-x-x-x-x-x--8--7--|
G|-5-5-5-5-5-5-5-5-5-5-5-5-5-5-5-5--3-3-3-3-3-3-3-3--7--7--|
C|------------------------------------------------------7--|

D|----------------------------------------|
A|----------------------------------------|
F|--7--------------5-----9----------------|
C|--7-----0--0-----5-----8---7------------|
G|--5-----0--0-----3-----7---7------------|
C|--------0--0---------------7------------|
          .  .

I think thats about it. Sounds close enough for me!
Comments