Metallica - St Anger Chords & Tabs

 

St Anger Chords & Tabs

Metallica Chords & Tabs

Version: 1 Type: Tab 0 ratings
1 star 2 stars 3 stars 4 stars 5 stars
comments

St Anger Tab

   
Song: St. Anger
Artist: Metallica
Tabbed by: Reinaldo López

Riff 1:
Eb|-------------------------------
Bb|-------------------------------
Gb|-------------------------------
Db|-------------------------------
Ab|-------------------------3-3-3-
Db|-0-3-1-0-2-1-0-1-0-3-1-0-------
 PM.________________________

Riff 2:
Eb|-------------------------------
Bb|-------------------------------
Gb|-------------------------------
Db|-------------------------5-5-5-
Ab|-0-3-1-0-2-1-0-1-0-3-1-0-3-3-3-
Db|-0-3-1-0-2-1-0-1-0-3-1-0-------

Riff 3:
Eb|---------------------------
Bb|---------------------------
Gb|---------------------------
Db|-1-0-0-1-0-0-1-0-0-1-0-0-1-
Ab|-1-0-0-1-0-0-1-0-0-1-0-0-1-
Db|-1-0-0-1-0-0-1-0-0-1-0-0-1-

Riff 4:
Eb|------------------------------------
Bb|----7-------------------------------
Gb|----7--7---7--------5--------3----2-
Db|----7----7---7----5---5----3--------
Ab|-5--------------3--------1-----0----
Db|------------------------------------

Riff 5a:
Eb|---------------
Bb|---------------
Gb|---------------
Db|-7-------------
Ab|-5---10---8--7-
Db|-----10---8--7-
[ Tab from: http://www.guitartabs.cc/tabs/m/metallica/st_anger_tab.html ]
Riff 5b:
Eb|------------------
Bb|------------------
Gb|-19---17---15--14-
Db|------------------
Ab|-17---15---13--12-
Db|------------------
Riff 6:
Eb|---------------------------------
Bb|---------------------------------
Gb|-------------------7~~-----------
Db|-0~~~~~-----------------10--8--7-
Ab|-0~~~~~--0-0--0-0--5~~--10--8--7-
Db|-0~~~~~--0-0--0-0--0~~--10--8--7-
         PM.________
Riff 7a:
Eb|-------------------------------------
Bb|-------------------------------------
Gb|-7-7-7-7-7-7-7-7---------------------
Db|-----------------10-10-10-10-8-8-7-7-
Ab|-5-5-5-5-5-5-5-5---------------------
Db|-----------------10-10-10-10-8-8-7-7-

Riff 7b:
Eb|-10-10-10-10-10-10-10-10-8-8-8-8-6-6-5-5-
Bb|-----------------------------------------
Gb|-7--7--7--7--7--7--7--7--5-5-5-5-3-3-2-2-
Db|-----------------------------------------
Ab|-----------------------------------------
Db|-----------------------------------------

Riff 8:
Eb|---------------------------
Bb|---------------------------
Gb|-7~~~----------------------
Db|-------0-0---0-0---0-0---0-
Ab|-5~~~--0-0---0-0---0-0---0-
Db|-0~~~--0-0---0-0---0-0---0-
       PM.____________________


Song order:
 
Riff 1 x 8 
Riff 2 x 8
Riff 3 x 1
Riff 4 x 4 
Riff 5 x 4
Riff 6 x 1
Riff 7 x 8
Riff 8 x 1
Riff 1 x 1 
Riff 2 x 4
Riff 3 x 1
Riff 4 x 4
Riff 5 x 4
Riff 6 x 1
Riff 7 x 8
Riff 8 x 1
Riff 1 x 1
Riff 2 x 16
Riff 3 x 1
Riff 7 x 8
Riff 8 x 1
Riff 1 x 1
Comments