Metallica - St Anger Chords & Tabs

 

St Anger Chords & Tabs

Metallica Chords & Tabs

Version: 1 Type: Bass Tab 1 rating
1 star 2 stars 3 stars 4 stars 5 stars
comments

St Anger Bass Tab

   
METALLICA
ST. ANGER
DROP C 
TABBED BY:Barnesy

Intro (0:20)
----------------|----------------|----------------|----------------|----------------|
----------------|----------------|----------------|----------------|----------------|
----------------|----------------|----------------|----------------|----------------|
-2---2---2---2--|----0------0----|---0--------0---|----0--------0--|-2---2---2---2--|

                *            PLAY 8 TIMES           *
----------------||----------------------------------||----------------|
----------------||.--------------------------------.||----------------|
----REST--------||.-------------------------3-3-3--.||----------------|
----------------||--1-2-2-1-2-1-0-2-1-0-2-1------0--||--0--0--0--0----|
             VERSE                           PRE CHORUS
*         PLAY 4 TIMES          **         PLAY 2 TIMES
||------------------------------||--------------------------------|
||.-------------------------8-7.||.---------------------10--------|
||-5--5-3-5-----0-5-3---0-5-----||.-------------------------------|
||------------------------------||-0-0-0-0-0-0-0-0-10-10--10--8--7|

                                 **         PLAY 2 TIMES          *
---------------------------------||-------------------------------||
---------------------10-----8--7.||.-----------------------------.||
--------------------------------.||.-----------------------------.||
0-0-0-0-0-0-0-0-10-10--10--8--7--||-0~----00--00---10~----8~---7~-||
                               CHORUS        
*                            PLAY 8 TIMES (ALL 8TH NOTES)                  *
||-------------------------------------------------------------------------||
||.-----------------------------------------------------------------------.||
||.-----------------------------------------------------------------------.||
||-0-0-0-0-0-0-0-0-0-0-0-0-0-0-0-0-10-10-10-10-10-10-10-10-8-8-8-8-7-7-7-7-||
     POST CHORUS
|-------------------|
|-------------------|
|-------------------|
|-0~--00--00--00--00|

                *            PLAY 8 TIMES           *
----------------||----------------------------------||----------------|
----------------||.--------------------------------.||----------------|
----REST--------||.-------------------------3-3-3--.||----------------|
----------------||--1-2-2-1-2-1-0-2-1-0-2-1------0--||--0--0--0--0----|
[ Tab from: http://www.guitartabs.cc/tabs/m/metallica/st_anger_btab.html ]
      VERSE                           PRE CHORUS
*         PLAY 4 TIMES          **         PLAY 2 TIMES
||------------------------------||--------------------------------|
||.-------------------------8-7.||.---------------------10--------|
||-5--5-3-5-----0-5-3---0-5-----||.-------------------------------|
||------------------------------||-0-0-0-0-0-0-0-0-10-10--10--8--7|

                                 **         PLAY 2 TIMES          *
---------------------------------||-------------------------------||
---------------------10-----8--7.||.-----------------------------.||
--------------------------------.||.-----------------------------.||
0-0-0-0-0-0-0-0-10-10--10--8--7--||-0~----00--00---10~----8~---7~-||
                               CHORUS        
*                            PLAY 8 TIMES (ALL 8th NOTES)                  *
||-------------------------------------------------------------------------||
||.-----------------------------------------------------------------------.||
||.-----------------------------------------------------------------------.||
||-0-0-0-0-0-0-0-0-0-0-0-0-0-0-0-0-10-10-10-10-10-10-10-10-8-8-8-8-7-7-7-7-||
 
     POST CHORUS
|-------------------|
|-------------------|
|-------------------|
|-0~--00--00--00--00|

REST FROM 4:38-4:57

----------------|----------------|----------------|----------------|----------------|
----------------|----------------|----------------|----------------|----------------|
----------------|----------------|----------------|----------------|----------------|
-2---2---2---2--|----0------0----|---0--------0---|----0--------0--|-2---2---2---2--|

*            PLAY 26 TIMES           *
||.--------------------------------.||------------|
||.--------------------------------.||------------|
||.-------------------------3-3-3--.||------------|
||-1-2-2-1-2-1-0-2-1-0-2-1--------0-||-0--0--0--0-|

                               CHORUS        
*                            PLAY 10 TIMES (ALL 8th NOTES)                 *
||-------------------------------------------------------------------------||
||.-----------------------------------------------------------------------.||
||.-----------------------------------------------------------------------.||
||-0-0-0-0-0-0-0-0-0-0-0-0-0-0-0-0-10-10-10-10-10-10-10-10-8-8-8-8-7-7-7-7-||

     POST CHORUS/OUTRO
|-------------------|---------|--------|
|-------------------|--REST---|--------|
|-------------------|---------|--------|
|-0~--00--00--00--00|---------|---0
Comments