Metallica - Some Kind Of Monster Complete Chords & Tabs

 

Some Kind Of Monster Complete Chords & Tabs

Metallica Chords & Tabs

Version: 1 Type: Tab 0 ratings
1 star 2 stars 3 stars 4 stars 5 stars
comments

Some Kind Of Monster Complete Tab

   
Band Name:Metallica
Song:Some Kind of Monster
Album:St. Anger
Tabbed by Sean Coleman

       P-Pull off
       H-Hammer on
       \-Slide down
       /-Slide up
       v-Vibrato
       b-bend
The tuning is Drop D, tuned 1 more whole step down(CGCFAD).You'll have to listen
to the song to  hear how to place everything.Timing isn't exact, but I tried
getting it close.Listen to the song 

to get it exact.

Intro
Play this twice a with clean tone:
|----------------|---------------|---------------| 
|----------------|---------------|---------------| 
|----------------|---------------|---------------|
|----------------|---------------|---------------|
|----------------|---------------|---------------|
|-0-0-3-5-0------|-0-3-5-0-------|-0-3-5-0-3-5---|   
PM---------       PM--------       PM----------                      
[ Tab from: http://www.guitartabs.cc/tabs/m/metallica/some_kind_of_monster_complete_tab.html ]
|----------------|---------------|---------------|  
|----------------|---------------|---------------|
|----------------|---------------|---------------|
|----------------|---------------|---------------|
|----------------|---------------|---------------|
|-0-0-0-3-5-0----|-0-3-5-0-------|-0-3-5-0-------|
PM-----------    PM--------      PM--------------

Basically the intro only heavily distorted:
|----------------|---------------|---------------| 
|----------------|---------------|---------------| 
|----------------|---------------|---------------|
|----------------|---------------|---------------|
|----------------|---------------|---------------|
|-0-0-3-5-0------|-0-3-5-0-------|-0-3-5-0-3-5---|  

|----------------|---------------|---------------| 
|----------------|---------------|---------------|
|----------------|---------------|---------------|
|----------------|---------------|---------------|
|----------------|---------------|---------------|
|-0-0-0-3-5-0----|-0-3-5-0-------|-0-3-5-0-------|

|----------------|---------------|---------------|
|----------------|---------------|---------------|
|----------------|---------------|---------------|
|----------------|---------------|---------------|
|-3-3-3-5-0------|-3-3-3-5-0-----|-3-3-3-5-0-----|
|-3-3-3-5-0------|-3-3-3-5-0-----|-3-3-3-5-0-----|

James plays this with some effect:
|----------------|             |----------------|
|----------------|             |----------------|
|-------12-------|             |-------12-12b---|
|-12-15----12----|
Comments