Metallica - Some Kind Of Monster Chords & Tabs

 

Some Kind Of Monster Chords & Tabs

Metallica Chords & Tabs

Version: 1 Type: Bass Tab 0 ratings
1 star 2 stars 3 stars 4 stars 5 stars
comments

Some Kind Of Monster Bass Tab

   
Song: Some kind of Monster                               
Artist: metallica
Tuning: F-C-G-C                                                       Tabbed by : metaledo                
Tabed by: Barnesy
|--------------------------|
|--------------------------|
|--------------------------|
|--0---0-0--3--5--0--x--0--|

|--------------------------|--------------------------|
|--------------------------|--------------------------|
|--------------------------|--------------------------|
|--3--5--0--3--5--0--3--5--|--0---0-0--3--5--0--x--0--|

|--------------------------|--------------------------|
|--------------------------|--------------------------|
|--------------------------|--------------------------|
|--3--5--0--3--5--0--3--5--|--0---0-0--3--5--0--x--0--|

|--------------------------|--------------------------|
|--------------------------|--------------------------|
|--------------------------|--------------------------|
|--3--5--0--3--5--0--3--5--|--0---0-0--3--5--0--x--0--|

|--------------------------|-----------------------|--------|
|--------------------------|-----------------------|--------|
|--------------------------|-----------------------|--------|
|--3--5--0--3--5--0--3--5--|--3-3-3------5--0------|--------|

|-----------------------|-------|-----------------------|
|-----------------------|-------|-----------------------|
|-----------------------|-------|-----------------------|
|--3-3-3------5--0------|-------|--3-3-3------5--0------|

|-------|---------------------|-------|
|-------|---------------------|-------|
|-------|---------------------|-------|
|-------|--3--------5--0------|-------|

|---------------------|-------|---------------------|
|---------------------|-------|---------------------|
|---------------------|-------|---------------------|
|--3--------5--0------|-------|--3--------5--0------|

|--------|-------------|
|--------|-------------|
|--------|-------------|
|--------|--3-3-3------|

|-----------------------------------|
|-----------------------------------|     X4
|-----------------------------------|
|--0-0-0-0-0-0-0-0-0--3--5--0----0--|                                                                                
|-----------------------|--------|
|-----------------------|--------|
|-----------------------|--------|
|--3-3-3------5--0------|--------|

|---------------------|----------|
|---------------------|----------| X3
|---------------------|----------|
|--3--------5--0------|----------|

|-----------------------|---------|-----------------------|
|-----------------------|---------|-----------------------|
|-----------------------|---------|-----------------------|
|--3-3-3------5--0------|---------|--3-3-3------5--0------|

|-------|-------------|-----------------------------------|
|-------|-------------|-----------------------------------|
|-------|-------------|-----------------------------------|
|-------|--3-3-3------|--0-0-0-0-0-0-0-0-0--3--5--0----0--|

|------------------------------------|-----------------------------------|
|------------------------------------|-----------------------------------|
|------------------------------------|-----------------------------------|
|--3-3-3-3-5--0--3--5-5-5-5-0--3--5--|--0-0-0-0-0-0-0-0-0--3--5--0----0--|

|------------------------------------|
|------------------------------------|
|------------------------------------|
|--3-3-3-3-5--0--3--5-5-5-5-0--3--5--|

|------------------------------|
|------------------------------| X 15
|------------------------------|
|--0---0-10/12-0---12--12-0----|

|---------------------|-----------------------|----------------------|
|---------------------|-----------------------|----------------------|
|---------------------|-------5---------------|----------------------|
|--0--------0------0--|--0-------0--0------0--|--0------0--0------0--|

|-----------------------|----------------------|
|-----------------------|----------------------|
|-------5---------------|----------------------|
|--0-------0--0------0--|--0------0--0------0--|

|------------------------------|
|------------------------------|   X9
|------------------------------|
|--0---0-10/12-0---12--12-0----|

|---------------------|----------------------|
|---------------------|----------------------|  X2
|---------------------|----------------------|
|--0------0------0----|--0------0--1----2----|

|----|------------------------|----------------------|
|----|------------------------|----------------------|
|----|------------------------|----------------------|
|----|----------5-3-5-0-0--5--|--5-3-5-0-------------|

|------------------------|---------------------------|
|------------------------|---------------------------|
|------------------------|---------------------------|
|----------5-3-5-0-0--5--|--5-3-5-0-----5-3-5-0-0----|

|-----------------------------|----------------------------|
|-----------------------------|----------------------------|
|-----------------------------|----------------------------|
|--5-3-5-0-0----5-3-5-0-0--5--|--5-3-5-0-0----5-3-5-0-0----|

|-----------------------------|
|-----------------------------|
|-----------------------------|
|--5-3-5-0-0----5-3-5-0-0--5--|

|---------------------|----------------------|
|---------------------|----------------------| X2
|---------------------|----------------------|
|--0------0------0----|--0------0--1----2----|

|--------------------------|
|--------------------------|
|--------------------------|
|--0---0-0--3--5--0--x--0--|

|--------------------------|--------------------------|
|--------------------------|--------------------------|
|--------------------------|--------------------------|
|--3--5--0--3--5--0--3--5--|--0---0-0--3--5--0--x--0--|

|--------------------------|--------------------------|
|--------------------------|--------------------------|
|--------------------------|--------------------------|
|--3--5--0--3--5--0--3--5--|--0---0-0--3--5--0--x--0--|

|--------------------------|--------------------------|
|--------------------------|--------------------------|
|--------------------------|--------------------------|
|--3--5--0--3--5--0--3--5--|--0---0-0--3--5--0--x--0--|

|--------------------------|-----------------------------------|
|--------------------------|-----------------------------------|
|--------------------------|-----------------------------------|
|--3--5--0--3--5--0--3--5--|--0-0-0-0-0-0-0-0-0--3--5--0----0--|

|------------------------------------|-----------------------------------|
|------------------------------------|-----------------------------------|
|------------------------------------|-----------------------------------|
|--3-3-3-3-5--0--3--5-5-5-5-0--3--5--|--0-0-0-0-0-0-0-0-0--3--5--0----0--|

|------------------------------------|
|------------------------------------|
|------------------------------------|
|--3-3-3-3-5--0--3--5-5-5-5-0--3--5--|

|------------------------------|
|------------------------------| X15
|------------------------------|
|--0---0-10/12-0---12--12-0----|
[ Tab from: http://www.guitartabs.cc/tabs/m/metallica/some_kind_of_monster_btab.html ]
|---------------------|-----------------------|----------------------|
|---------------------|-----------------------|----------------------|
|---------------------|-------5---------------|----------------------|
|--0--------0------0--|--0-------0--0------0--|--0------0--0------0--|

|-----------------------|----------------------|
|-----------------------|----------------------|
|-------5---------------|----------------------|
|--0-------0--0------0--|--0------0--0------0--|

|------------------------------|
|------------------------------|       X9
|------------------------------|
|--0---0-10/12-0---12--12-0----|

|---------------------|----------------------|
|---------------------|----------------------|  X2
|---------------------|----------------------|
|--0------0------0----|--0------0--1----2----|

|----|------------------------|----------------------|
|----|------------------------|----------------------|
|----|------------------------|----------------------|
|----|----------5-3-5-0-0--5--|--5-3-5-0-------------|

|------------------------|---------------------------|
|------------------------|---------------------------|
|------------------------|---------------------------|
|----------5-3-5-0-0--5--|--5-3-5-0-----5-3-5-0-0----|

|-----------------------------|----------------------------|
|-----------------------------|----------------------------|
|-----------------------------|----------------------------|
|--5-3-5-0-0----5-3-5-0-0--5--|--5-3-5-0-0----5-3-5-0-0----|

|-----------------------------|
|-----------------------------|
|-----------------------------|
|--5-3-5-0-0----5-3-5-0-0--5--|

|---------------------|----------------------|
|---------------------|----------------------|   X2
|---------------------|----------------------|                                                    |--0------0------0----|--0------0--1----2----|                    

|--------------------------|
|--------------------------|
|--------------------------|
|--0---0-0--3--5--0--x--0--|

|--------------------------|--------------------------|
|--------------------------|--------------------------|
|--------------------------|--------------------------|
|--3--5--0--3--5--0--3--5--|--0---0-0--3--5--0--x--0--|

|--------------------------|--------------------------|
|--------------------------|--------------------------|
|--------------------------|--------------------------|
|--3--5--0--3--5--0--3--5--|--0---0-0--3--5--0--x--0--|

|--------------------------|--------------------------|
|--------------------------|--------------------------|
|--------------------------|--------------------------|
|--3--5--0--3--5--0--3--5--|--0---0-0--3--5--0--x--0--|

|--------------------------|-----------------------------------|
|--------------------------|-----------------------------------|
|--------------------------|-----------------------------------|
|--3--5--0--3--5--0--3--5--|--0-0-0-0-0-0-0-0-0--3--5--0----0--|

|------------------------------------|-----------------------------------|
|------------------------------------|-----------------------------------|
|------------------------------------|-----------------------------------|
|--3-3-3-3-5--0--3--5-5-5-5-0--3--5--|--0-0-0-0-0-0-0-0-0--3--5--0----0--|

|------------------------------------|------------------------------|
|------------------------------------|------------------------------|
|------------------------------------|------------------------------|
|--3-3-3-3-5--0--3--5-5-5-5-0--3--5--|--0---0-10/12-0---12--12-0----|

|--------------------------|----------------------------|
|--------------------------|----------------------------|        X6
|--------------------------|----------------------------|
|--0---0-5/-3--0-0-0--1----|--0---0-5/-3--0-0-0--1-1-1--|

|------------------------|
|------------------------|     X3
|------------------------|
|--0--3--3--0--3--3------|

|---------------------------|----|----|----|----|
|---------------------------|----|----|----|----|
|---------------------------|----|----|----|----|
|--0--3--3--0--3--3--3/5/3--|----|----|----|----|

|----------------------|
|----------------------|   X4
|----------------------|
|--0------0--0------0--|

|------------------------|
|------------------------|    X3
|------------------------|
|--0--3--3--0--3--3------|

|---------------------------|
|---------------------------|
|---------------------------|
|--0--3--3--0--3--3--3/5/3--|

|----------------------|
|----------------------|     X4
|----------------------|
|--0------0--0------0--|

|--------------------------|----------------------------|
|--------------------------|----------------------------|   X2
|--------------------------|----------------------------|
|--0---0-5/-3--0-0-0--1----|--0---0-5/-3--0-0-0--1-1-1--|

|----------------|---------------|---------------|
|----------------|---------------|---------------|
|----------------|---------------|---------------|
|--0-0-0--1-1-1--|--5-3-5-0-0----|--5-3-5-0-0----|

|----------------|----------------|----------------------------|
|----------------|----------------|----------------------------|
|----------------|----------------|----------------------------|
|--0-0-0--1-1-1--|--0-0-0--1-1-1--|--5-3-5-0-0----5-3-5-0-0----|

|-----------------------------|----------------------------|---|
|-----------------------------|----------------------------|---|
|-----------------------------|----------------------------|---|
|--5-3-5-0-0----5-3-5-0-0--5--|--5-3-5-0-0----5-3-5-0-0----|---|

|--------------------------|--------------------------|
|--------------------------|--------------------------|
|--------------------------|--------------------------|
|--0---0-0--3--5--0--x--0--|--3--5--0--3--5--0--3--5--|

|--------------------------|--------------------------|
|--------------------------|--------------------------|
|--------------------------|--------------------------|
|--0---0-0--3--5--0--x--0--|--3--5--0--3--5--0--3-----|

|--------------------------|--------------------------|
|--------------------------|--------------------------|
|--------------------------|--------------------------|
|--0---0-0--3--5--0--x--0--|--3--5--0--3--5--0--3--5--|

|--------------------------|--------------------------|
|--------------------------|--------------------------|
|--------------------------|--------------------------|
|--0---0-0--3--5--0--x--0--|--3--5--0--3--5--0--3--5--|

|-----------------------------------|------------------------------------|
|-----------------------------------|------------------------------------|
|-----------------------------------|------------------------------------|
|--0-0-0-0-0-0-0-0-0--3--5--0----0--|--3-3-3-3-5--0--3--5-5-5-5-0--3--5--|

|-----------------------------------|------------------------------------|
|-----------------------------------|------------------------------------|
|-----------------------------------|------------------------------------|
|--0-0-0-0-0-0-0-0-0--3--5--0----0--|--3-3-3-3-5--0--3--5-5-5-5-0--3--5--|

|------------------------------|------------------------------|----||
|------------------------------|------------------------------|----||
|------------------------------|------------------------------|----||
|--0---0-10/12-0---12--12-0----|--0---0-10/12-0---12--12-0----|----||

 
 
 

Copyright 1999-2004 Mxtabs | Contact | Advertise | FAQ  
Comments