Metallica - Seek And Destroy Chords & Tabs

 

Seek And Destroy Chords & Tabs

Metallica Chords & Tabs

Version: 2 Type: Tab 3 ratings
1 star 2 stars 3 stars 4 stars 5 stars
comments

Seek And Destroy Tab

   
      Metallica/seek & destroy
   taken from the album Kill'em all


    intro:
 e||--------------------------------------------------------------||
 H||--------------------------------------------------------------||
 G||---------7h8-7----------------------------5-----------------------||
 D||--------------------7h8--7----------5---------7---------------------||
 A||--0--0----------0-----------0-7-6------7-----------------------------||
 E||--------------------------------------------------------------||

 RIFF A:
 e||--------------------------------------------------------------||
 H||--------------------------------------------------------------||
 G||------------0--2------------------------------------------------||
 D||------------0--2------------------------------------------------||
 A||----------------------------7--5--------------------------------||
 E||---0-0-0-0--------0-0-0-0--------7--6-----------------------------------||

 RIFF B:
 e||--------------------------------------------------------------||
 H||--------------------------------------------------------------||
 G||--------------------------------------------------------------||
 D||----------------------------------5----------------------------||
 A||--------------------------------------7------------------------||
 E||--0-0-0-0-0-0-0-0-0-0-0-0----7-6--------------------------------------------||
[ Tab from: http://www.guitartabs.cc/tabs/m/metallica/seek_and_destroy_tab_ver_2.html ]
 RIFF C:
  e||--------------------------------------------------------------||
 H||--------------------------------------------------------------||
 G||--------------------------------------------------------------||
 D||---5-----------5---7---5------------------------------------------||
 A||---3---0-0-0---3---5---3---------------------------------------------||
 E||--------------------------------------------------------------||
   rhy. fill 1
 e||--------------------------------------------------------------||
 H||--------------------------------------------------------------||
 G||-----7--5-------------------------------------------------------||
 D||----------7-6-5--------------------------------------------------||
 A||----------------7-6-5--------------------------------------------||
 E||--------------------------------------------------------------||
  rhy.fill 2
 e||--------------------------------------------------------------||
 H||--------------------------------------------------------------||
 G||--9--7----7------------------------------------------------------||
 D||-------9------9-8-7----------------------------------------------||
 A||---------------------10-----------------------------------------||
 E||--------------------------------------------------------------||
   chorus:
 e||--------------------------------------------------------------||
 H||--------------------------------------------------------------||
 G||--------------------------------------------------------------||
 D||---12-------11--10--9------------------------------------------
 A||---10-------9---8---7------------------------------------------
 E||-----------------------0-0-0-0-0-0-0-0-0-0-0-0-0-0-0-0--------

     RIFF D
e||--------------------------------------------------------------||
 H||--------------------------------------------------------------||
 G||--------------------------5-----------------4-------------------
 D||---5-------7--------7-----5-----7------7----4-----7------7-----
 A||------0-0-----0-0------0----0-0----0-0---0----0-0---0-0----0----
 E||--------------------------------------------------------------||

 e||--------------------------------------------------------------||
 H||--------------------------------------------------------------||
 G||--------------------------------------------------------------||
 D||----------3-2-0--------------------------------------------------||
 A||-3--2--0---------3-2-----------------------------------------------||
 E||--------------------------------------------------------------||
   RIFF E    IT'S THE SAME AS RIFF A BUT FROM 6TH STRING

     RIFF F   
 e||--------------------------------------------------------------||
 H||--------------------------------------------------------------||
 G||--------------------------------------------------------------||
 D||--10--9-------9---8-------8---7--------------------------------------||
 A||--12--11------11--10------10--9------------------------------------------||
 E||----------0-0---------0-0-------0-0-0-0-0-0-----------------------------||

 e||--------------------------------------------------------------||
 H||--------------------------------------------------------------||
 G||--------------------------------------------------------------||
 D||--10--9------9---5-----5--7------------------------------------------||
 A||--12--11-----11--7-----7--9--------------------------------------------||
 E||---------0-0-------0-0------0-0-0-0-0-0---------------------------------||

 TABBED BY ANGEL MANOLOV  e-mail:  angel_slayera@hotmail.com
    goodbye!!!
Comments