Metallica - Sanitarium Chords & Tabs

 

Sanitarium Chords & Tabs

Metallica Chords & Tabs

Version: 2 Type: Tab 0 ratings
1 star 2 stars 3 stars 4 stars 5 stars
comments

Sanitarium Tab





          Welcome Home (Sanitarium)
                by MetallicA


      this is the correct way to play the intro

     (this song kicks ass!!!!)

    Intro:
        < > = Let ring        
         /  = Slide

e|---------------------3---353----3/2----------
B|---------------------------------------------
G|-------------------------------------------------
D|-------------------------------------------------
A|-------------------------------------------------
E|--0---------------------------------------------- 

e|----------------------2-----2--3-------------
B|-------------------------0-------------------
G|-------------------------------------------------
D|-------------------------------------------------
A|-------------------------------------------------
E|--0----------------------------------------------

[ Tab from: http://www.guitartabs.cc/tabs/m/metallica/sanitarium_tab_ver_2.html ]
e|-----------------------------------------
B|-----------------------------------------
G|-------------------------------------------------
D|-------------------------------------------------
A|-------------------------------------------------
E|--0------------------0---------------------------


e|-----------------------------------------
B|-----------------------------------------
G|---------------------------------------------
D|-------------------------------------------------
A|-------------------------------------------------
E|--0-------------------0--------------------------


     Repeat this 2 or 3 times


e|-------------------------------------------------
B|-------------------------------------------------
G|--------0-------0-------0------------------------
D|------4-------5-------7--------0-----------------
A|----2-------3-------5--------4---------/2-------0
E|--0-------0-------0--------5------5--3-----3--5--



Tabbed by
          AN1186@webtv.net











Comments