Metallica - Sad But True Chords & Tabs

 

Sad But True Chords & Tabs

Metallica Chords & Tabs

Version: 8 Type: Tab 0 ratings
1 star 2 stars 3 stars 4 stars 5 stars
comments

Sad But True Tab

  Intro: moderately slow (let the first A5 ring out)

e------------------------------------------
B------------------------------------------
G--2---2-2-2--3------3---2-----------------
D--2---2-2-2--3------3---2-----7-6-5---3h5p
A--0---0-0-0--1------1---0-----------------
E------------------------------------------

e------------------------------------------
B------------------------------------------
G------------------------------------------
D--3h5p3h5p3h5p3h5p3h5p3h5p3h5p3h5p-------- repeat x2
A------------------------------------------
E------------------------------------------

             VERSE RIFF 1

e------------|---------------------| repeat x3  (after doing the riff 3 times
B------------|---------------------|             instead of doing 5 0 1 0 3 0
G--5----XXXXX|---------------------|             do 5 0 5 5)
D--3----XXXXX|---------------------|            
A------------|--2----22--5-0-1-0---|            
E------------|--0----00---------3-0|            


           VERSE RIFF 2

e--------------------|-------------------| repeat x4
B--------------------|-------------------|
G--------------------|-------------------|
D--------7-----------|--------3----------|
A--------5-----------|--------1----------|
E-0-0-0-0---0-0--0-0-|-0-0-0-0---0-0--0-0|

           CHORUS

e-------------------|---------------------|---------------------
B-------------------|---------------------|---------------------
G-------------------|---------------------|---------------------
D----3-3-0-3-2------|-----3-3-0-----------|---------------------
A----3-3-0-3-2------|-----3-3-0----7-7-7-7|--7-7-8-8-5-7-5-5-5-5
E-0-0---------0-0-0-|-0-0-------0--5-5-5-5|--5-5-6-6-3-5-3-3-3-3 

e--------------------|
B--------------------|
G--------------------|
D------5-5-5-5-------|
A--5-5-3-3-3-3--3-3--|
E--3-3--------0-1-1-0|

            INTERLUDE

e-----------------------------|--------------------------------|
B-----------------------------|--------------------------------|
G-----------------------------|--------------------------------|
D-7-6-5-2----7-6-5-3---7-6-5-2|-2---2-2-2---3-----3---2---2-2-2|
A-----------------------------|-0---0-0-0---1-----1---0---0-0-0|
E-----------------------------|--------------------------------|
[ Tab from: http://www.guitartabs.cc/tabs/m/metallica/sad_but_true_tab_ver_8.html ]
e-----------------------------------|----------------------------------
B--------5-4-3----5-4-3-------------|----------------------------------
G-------------2--------3------------|----------------------------------
D-7-6-5-4----------------2-3-5-3-5-3|-3----7-6-5-2--7-6-5-3-2-3-5-3-5-3
A-----------------------------------|-1-----------0--------1-----------
E-----------------------------------|----------------------------------

e---------------------------|-----------------------  (there's a small break 
B--------------------------3|-----------------------   and then the first 
G-2------------------------4|-----------------------     solo)
D--2-3-5-3-5-3--3-----------|--2----2-3-5-3-4-5-3--3
A---------------------------|---0--------------------
E---------------------------|------------------------

       FIRST SOLO

e--------------------------------------------------------------------------
B-12------------12-12-12-----12------------------------------12------------
G-13------------12-12-12-----12------------------------------12------------
D-------14-12-14---------14-----14-12---12-14-12-------12-14---14-12--12-14
A------------------------------------14--------------14-------------14-----
E--------------------------------------------------------------------------

e---------------------------------|----------------------------------------
B---------------------------------|---12-15-12-15-12--12-12-15-12--12-15-12
G-9-7-6-------4-5-4-4-------------|-14--------------14-----------14--------
D------9-7-7-9-----7-7-5-4-----9-5|----------------------------------------
A-------------------------5-5-7---|----------------------------------------
E---------------------------------|----------------------------------------

e----------------------------------------------------------------------------
B---12-15-12----------------12--------------------------14-14--------------14
G-14--------14-12-----------12--14-12-------------------14-14-14-12--12-14-14
D----------------14-14-12-14--14-----14-12-------------------------14--------
A-----------------------------------------14-12-10-12-10---------------------
E----------------------------------------------------------------------------

e------------------------------------------
B-----12------14-12-14-12-14-12-14---------
G-12--12--12--14-12-14-12-14-12-14-12-14---
D---14--14-------------------------------12
A------------------------------------------
E------------------------------------------
Comments