Metallica - Sabra Cadabra Chords & Tabs

 

Sabra Cadabra Chords & Tabs

Metallica Chords & Tabs

Version: 1 Type: Tab 3 ratings
1 star 2 stars 3 stars 4 stars 5 stars
comments

Sabra Cadabra Tab

e:--------------------------------
A:-7-8h9--------------------------
D:---------9-9-9--(x2)------------
G:-------7------------------------
B:--------------------------------
E:--------------------------------
[ Tab from: http://www.guitartabs.cc/tabs/m/metallica/sabra_cadabra_tab.html ]
e:----------------7---------------
A:-7-8h9---9/7--5-----------------
D:-------7----------(x2)----------
G:--------------------------------
B:--------------------------------
E:--------------------------------

I will put the strumming in later any questions or comments 
send an email to aspoondaddy4u@aol.com
Comments