Metallica - Ride The Lightning With Solo Chords & Tabs

 

Ride The Lightning With Solo Chords & Tabs

Metallica Chords & Tabs

Version: 1 Type: Tab 4 ratings
1 star 2 stars 3 stars 4 stars 5 stars
comments

Ride The Lightning With Solo Tab

   
Ride the lightning
metallica
tabbed by jesta 187.

theres already a tab for this on the gtu, but there are a few
mistakes and it dont have the solo, so here it is in full.

intro
(gtr 1)
e       e          e         e
gtr2
--7--8--------7----------------------------
--7--8----10-------------7------8----------
-----------7--9-------9------------9-------
----------------------7--9-----------------
--------------------------------5--7-------   (you can just
-------------------------------------------x4  play the high
                                              strings here)
riff 1
----------------------------------
----------------------------------
----------------------------------
----------------------------------
-----/8-----------/8--------------
--(5)/6--0--0--(5)/6--0--0--0--0--
        (pm>>>       (pm>>>>>>>>>
riff 2
--------------------------.-----------------------------------
--------------------------.-----------------------------------
--------------------------.-----------------------------------
-----------------2--4--5--.---------------5\4-----------------
--4----2-----4---0--2--3--.--4------------3\2-----------------
--2----0-----2------2-----.--2-------------------------------
            (three times)   (then) 

verse riff
----------------------------------.-----------------------------
----------------------------------.-----------------------------
----------------------------------.-----------------------------
----------------------------------.-------------------------5\4-
-----/8-----------/8--------------.-----/8-----------/8-----3\2-
--(5)/6--0--0--(5)/6--0--0--0--0--.--(5)/6--0--0--(5)/6--0------
        (pm>>>       (pm>>>>>>>>>

verse 2 (key change)       
-------------------------------------------------------------
-------------------------------------------------------------
-------------------------------------------------------------
-------------------------------------------------------------
--2h4----------2h4-------------------------------------------
--2----2---2---2----2---2---2---2----------------------------
      (pm>>>>       (pm>>>>>>>>>>

chorus
part 1
-------------------------------------------------------------
-------------------------------------------------------------
-------------------------------------------------------------
--6----5--4---6----------------------------------------------
--4----3--2---4--0--0--0--0--0--0----------------------------
-----------------------------------0--0----------------------
                 (pm>>>>>>>>>>>>>>>>>>>

-------------------------------------------------------------
-------------------------------------------------------------
-------------------------------------------------------------
--6----5--4---6--------------------6\------------------------
--4----3--2---4--0--0--0--0--0--0--6\------------------------
-------------------------------------------------------------
                (pm>>>>>>>>>>>>>>

bridge 1
-------------------------------------------------------------
-------------------------------------------------------------
-------------------------------------------------------------
--9--8--7----------------------------------------------------
--7--6--5--------8--------5-/7----------3---------------5----
-----------0--0--6--0--0--3-/5--0-0-0-0-3---0-0-0-0-0-0-3----

bridge 1+2 join
-------------------------------------------------------------
-------------------------------------------------------------
-------------------------------------------------------------
--9--8--7----5---------------------4-------------------------
--7--6--5----3---------------------2-------------------------
-------------------------------------------------------------
              let ring              let ring

bridge 2 (half time feel)
-------------------------------------------------------------
-------------------------------------------------------------
-------------------------------------------------------------
------------------5------------------------------------------
--2---------------3----------------5--/7--7------------------
--0---------0--3-------------0--3--3--/5--5------------------

solo (with bridge 2)
-------------------------------------------------------------
-------------------------------------------------------------
-12-9-5-12-5-9-12-5-12-9-5-12-5-9-12-9-12-5-12-9-5-9-5-9-12--
-------------------------------------------------------------
-------------------------------------------------------------
-------------------------------------------------------------x2
(hammerons/pulloffs>>>>>>>>>>>>>>>>>>>>>>>>>>>>>>>>>>>>>>>>>

-------------------------------------------------------------
-------------------------------------------------------------
--14--14b(16)-14b(16)-14---12--11--11--12-11h12h11-----------
---------------------------------------------------14----12--
-------------------------------------------------------------
-------------------------------------------------------------

-------------------------------------------------------------
---------------------5--5/-7--7--7-/8--8--8/-10-10-10-10\8---
-------------------------------------------------------------
------12--12--14-x\--2--2/-4--4--4-/5--5--5/-7--7--7--7-\5---
--14-------------x\------------------------------------------
-----------------x\------------------------------------------

-------------------------------------------------------------
-8-/10-10/-12---12-\10--10-/12--12/-13--13/--15--15/-17--17--
-------------------------------------------------------------
-5-/7---7/--9---9--\7---7--/9---9/--10--10/--12--12/-14--14--
-------------------------------------------------------------
-------------------------------------------------------------

-------------------------------------------------------------
-------------------------------------------------------------
--------------19--h23p21-19--21--19-----19-----19--19-21-h23-
-17--19--21--------------------------21-----21---------------
-------------------------------------------------------------
-------------------------------------------------------------

-19--------------24--22--19--19--22--19-19----19-----------14-
-----24-p22--19----------------------------22----24-24\17----- 
-------------------------------------------------------------
-------------------------------------------------------------
-------------------------------------------------------------
-------------------------------------------------------------

-17-14----14-17\14----14-------------17-14-------------------
-------17----------17-------14-17-14-------17-14---14-17-14--
-------------------------16----------------------18----------
-------------------------------------------------------------
-------------------------------------------------------------
-------------------------------------------------------------

-------------------------------------------------------------
-------------------------------------------------------------
-16-14----14-16-14------------------------------------------
-------16----------16-14----14-16-14------------------------
-------------------------16----------16-14-14-12-14-12----12-
-------------------------------------------------------14----

-------------------------------------------------------------
--------------------------------------14-19-17b-17b-17b-17b--
----------14-16-16-14----14-16-14--16------------------------
----14-16-------------16-------------------------------------
-16----------------------------------------------------------
-------------------------------------------------------------

----17b-17b-17b-17-14-17-14-14-14-17-14----------------------
-14-------------------------------------17-14-----14-17-14---
----------------------------------------------18-------------
-------------------------------------------------------------
-------------------------------------------------------------
-------------------------------------------------------------
[ Tab from: http://www.guitartabs.cc/tabs/m/metallica/ride_the_lightning_with_solo_tab.html ]
---------------------------14-17-14-14-14-14-14-17-14-19-14--
------------------------17-----------------------------------
-16-14----14-16b-14/-----------------------------------------
-------16-----------16\--------------------------------------
-------------------------------------------------------------
-------------------------------------------------------------

-17-14----14-17-17-19-14-17-14----14-14-17-17-19-14-17-14----14-
-------17----------------------17-------------------------17----
-------------------------------------------------------------
-------------------------------------------------------------
-------------------------------------------------------------
-------------------------------------------------------------

-19-14-17-14----17--------------------------------------------
-------------------17-14-17-14----14--------------------------
-------------18----------------16----16-14----14-16-----------
-------------------------------------------16-------14--14-16-
-------------------------------------------------------------
-------------------------------------------------------------

----------------------------------14-15p14-------------------
-------14-15-14h15p14----14-15-17----------17-15-14-15-17----
-14-16----------------16-------------------------------------
-------------------------------------------------------------
-------------------------------------------------------------
-------------------------------------------------------------

-14-15-17-15-17-19-17-19-12-19-20-22-22b-22b-22b-17-19-21----
-------------------------------------------------------------
-------------------------------------------------------------
-------------------------------------------------------------
-------------------------------------------------------------
-------------------------------------------------------------

-21-19-17-15-19-17-15-14-17-15-12-15-12-13-14-17-15-12-15-12-
-------------------------------------------------------------
-------------------------------------------------------------
-------------------------------------------------------------
-------------------------------------------------------------
-------------------------------------------------------------

----14-12----14-12----------12-------------------------------
-15-------13-------13-12-13----15-13-12----------------------
-------------------------------------------10----------------
-------------------------------------------10----------------
--------------------------------------------8----------------
-------------------------------------------------------------
                             trem bar down x    up x

double time
---------------------------12-12-15-12-14-12----12----------
--15b-15b-15b-15b-15b-15b--------------------15----15-14-12-
------------------------------------------------------------
-------------------------------------------------------------
-------------------------------------------------------------
-------------------------------------------------------------

--------------------------------------12-16-14-12--------------
-14-12--------------------------------------------16-14-12-----
-------14-12----12-14-12-14b-14b-14b---------------------------
-------------14------------------------------------------------
-------------------------------------------------------------
-------------------------------------------------------------

-16-14-12----------17-16-14----------17-16-14----------------
----------16-14-12----------17-16-14----------17-16-14-------
-------------------------------------------------------------
-------------------------------------------------------------
-------------------------------------------------------------
-------------------------------------------------------------

-19-17-16----------21-19-17----------22-21-19-----------22b--
----------19-17-16----------21-19-17----------22-21-19--22b--
-------------------------------------------------------------
-------------------------------------------------------------
-------------------------------------------------------------
-------------------------------------------------------------

with harmonizer
----15-19-15--(x4)----14-17-14-(x4)----13-17-13-(x4)---12-16-12(x4)
-17----------------15---------------15--------------12------------
-------------------------------------------------------------
-------------------------------------------------------------
-------------------------------------------------------------
-------------------------------------------------------------(rpt x2)

----10-13-8----8-13-8----10-15-10-------13-18-13-------------
-12---------10--------10----------12-15----------------------
-------------------------------------------------------------
-------------------------------------------------------------
-------------------------------------------------------------
-------------------------------------------------------------

-20-15-12-15----15-19-19-15----15-18-15-18----15-17-15-------
-------------16-------------17-------------17----------17----
-------------------------------------------------------------
-------------------------------------------------------------
-------------------------------------------------------------
-------------------------------------------------------------

-15-17-15----15-17-17\-13-8----8-13-8-13-8----8-13-8-13-8----
----------17-------17\------10-------------10-------------10-
-------------------------------------------------------------
-------------------------------------------------------------
-------------------------------------------------------------
-------------------------------------------------------------

-15-10----10-15-10-15-10----12-10-13----13-18-13----13-------
-------12----------------12----------15----------15-13-------
-------------------------------------------------------------
-------------------------------------------------------------
-------------------------------------------------------------
-------------------------------------------------------------
(hand falls off!!!!)

vocal bridge (someone help me......)
-------------------------------------------------------------
-------------------------------------------------------------
-------------------------------------------------------------
-------------------------------------------------------------
-3-3-3-3-3-3-3-3-2-2-2-2-2-2-2-1-1-1-1-1-1-1-0-0-0-0-0-0-0-0-
-------------------------------------------------------------
(pm>>>>>>>>>>>>>>>>>>>>>>>>>>>>>>>>>>>>>>>>>>>>>>>>>>>>>>>>>>

-------------------------------------------------------------
-------------------------------------------------------------
-------------------------------------------------------------
-------------------------------------------------------------
---------------------------------------1-1-1-1-1-1-----------
-1-1-1-1-1-1-1-1-1-1-3-3-3-3-3-3-3-3-3---------(into bridge 1)
(pm>>>>>>>>>>>>>>>>>>>>>>>>>>>>>>>>>>>>>>>>>>>>>>>>>>>>>>>>>>>

outro
--7-8--------7--------------------------------------------------
----------10---------7------8------------------------------------
-------------------9----------9\--------------------------------
-------------------------------------------------------------
-------------------------------------------------------------
-------------------------------------------------------------
                             (echo delay on very last note!!)

that was the hardest thing i have tabbed yet, so youd better be grateful.
 jesta xxx

verse one:
guilty as charged nut damn it it aint right
theres someone else controlling me
death in the air, strapped in the electric chair
this cant be happening to me
who made you god to say 'ill take your life from you'

chorus
flash before my eyes now its time to die
burning in my brain i can feel the flame.

verse two.
wait for the sign to flick the switch of death
its the begginning of the end
sweat chilling cold as i watch death unfold
consiousness my only friend
my fingers grip with fear 
waht am i doing here?

verse 3
time moving slow
the minutes seem like hours
the final courtain call i see.
how true is this? just get it over with
if it is true then let it be
wakened by horrid scream
freed from my frightening dream

vocal bridge
someone help me,oh please god help me
they're trying to take it all away
i dont want to die.
Comments