Metallica - Outlaw Torn Chords & Tabs

 

Outlaw Torn Chords & Tabs

Metallica Chords & Tabs

Version: 1 Type: Tab 0 ratings
1 star 2 stars 3 stars 4 stars 5 stars
comments

Outlaw Torn Tab

   
					Metallica
					Outlaw Torn

I can tell you right now, this is the right version because I got this off my guitar teacher and he really knows his stuff, so this is right.

Key:
(#) = bend marked string to sound like that particular fret in parenthesis
~~ = bend/release

Beginning
|------------------------------------------------------------|
|------------------------------------------------------------|
|------------------------------------------------------------|
|---3---3----3---3----3----3----3--3-----3---3---------------|
|---2---2----2---2----2----2----2--2-----2---2---------------|		Repeat this measure 6 times
|---1---1----1---1----1----1----1--1-----1----1--------------|

Play each one right after one another, the last 2 are seperate ones that are played only one time

Kirk’s Beginning
|--0------------------------------------------------|
|--4------------------------------------------------|
|--0------------------------------------------------|
|--2------------------------------------------------|
|--2------------------------------------------------|		Play this, picking up from the first 
|--0------------------------------------------------|		string and  using whah


Main
|--------------------------------------------------|
|--------------------------------------------------|
|--------------------------------------------------|
|--------------------------------------------------|
|--5--7--7--5--7-|-5--7--5--7--7-------------------|		
|--0--0--0--0--0-|-0--0--0--0--0-------------------|

|--------------------------------------------------|
|--------------------------------------------------|
|--------------------------------------------------|
|--4 (5)--4--0-------------------------------------| 
|--5----------5------------------------------------|  Repeat this bend 2 times after first play
|--------------------------------------------------|





E5
|--------------------------------------------------|
|--------------------------------------------------|
|--------------------------------------------------|
|--9-----------------------------------------------|
|--7-----------------------------------------------|
|--0-----------------------------------------------|


Verse 1

The verse is played by Jason so I can only tab the guitar part

|--------------------------------------------------|
|--------------------------------------------------|
|--------------------------------------------------|
|----7---9--|----7---4-----------------------------|
|--5---7----|--5---2-------------------------------|
|--------------------------------------------------|

Verse 2

|--------------------------------------------------|
|--------------------------------------------------|
|--------------------------------------------------|
|------7----9--|----7---4-------4------------------|
|----5----7----|--5---2----0--2--------------------|
|--------------------------------------------------|

|--------------------------------------------------|
|--------------------------------------------------|
|------11----9-------------------------------------|
|----9--------7----------2-------------------------|
|--------------0----------0------------------------|
|-------------------3------------------------------|

Bridge
(hear me, if I close my mind in fear ect.)
 
|--------------------------------------------------|
|--------------------------------------------------|
|--------------------------------------------------|
|----7---9---9---9---------------------------------|
|--5---7---7---7-----------------------------------|
|--------------------------------------------------|

|--2--2-----2--------2-----------------------------|
|--3--2-----2--------2-----------------------------|
|--2--2-----2--------2-----------------------------|
|--------------------------------------------------|
|------------------5-------------------------------|
|---------3------3---------------------------------|

|--------------------------------------------------|
|--------------------------------------------------|
|--0--0--0--0--0-----------------------------------|
|--0--0--0--0--0-----------------------------------|
|--7--5--4--5--5---|---2---------------------------|
|--5--3--2--3--3---|---0---------------------------|

James’ 1st Solo (starts at approx 5:20)

|--------------------------------------------------|
|--------------------------------------------------|
|--------------------------------------------------|
|----5--7--(9)--7--5-------------------------------|
|--7--------------------7--------------------------|  Repeat this 2 times
|--------------------------------------------------|
[ Tab from: http://www.guitartabs.cc/tabs/m/metallica/outlaw_torn_tab.html ]
|------------------------------------------------------|
|------------------------------------------------------|
|-----12--14--(16)--14--12--14--(16)--14--(16)---------|
|--14--------------------------------------------------|
|------------------------------------------------------|
|------------------------------------------------------|

|----------------------------------------------------------------------------------|
|--------------------------------------12--14-(16)-14--12--14-(16)-14-(16)---------|
|--12--14-(16)-14--12--------------------------------------------------------------|
|-------------------------14--12---------------------------------------------------|
|----------------------------------------------------------------------------------|
|----------------------------------------------------------------------------------|






|--------------------------------------------------|
|--------------------------------------------------|
|--------------------------------------------------|
|----5--7--9----5----------------------------------|
|--7-----------5----7------------------------------|
|--------------------------------------------------|		Repeat this twice

|------------------------------------------------------------------|
|------------------------------------------------------------------|
|------------------------------------------------------------------|
|-----------7--9--------9--7--------9--7--9--10--12----------------|
|-----5-5---------5-5---------3~~----------------------------------|
|--7---------------------------------------------------------------|

James’ Awesome Solo

|--------------------------------------------------|
|--------------------------------------------------|
|--------------------------------------------------|
|-------------------------------------5------------|
|----5-7----5-7----5-7-----5-7-------7--5----------|
|--0------0-------0-------0------------------------|

|--------------------------------------------------|
|--------------------------------------------------|
|--------------------------------------------------|
|-----------------------------------7--7--5--------|
|----5-7----5-7----5-7----5-7----------------------|
|--0-------0------0-------0------------------------|		Repeat as needed

|--------------------------------------------------|
|--------------------------------------------------|
|--------------------------------------------------|
|-------------5------------5-7-----7-5-7-----------|
|--5--7-7-7----7-7--5-7----------------------------|
|--------------------------------------------------|		Play this measure 2 times

|----------------------------------------------------------------------------------|
|----------------------------------------------------------------------------------|
|-------------------12------------------12--14 (16)--14--12--14-(16)---------------|
|--12--14-14-14-----14--14-12-14---------------------------------------------------|
|----------------------------------------------------------------------------------|
|----------------------------------------------------------------------------------|

|----------------------------------------------------------------------------|
|----------------------------------------12-12----12--14--12-----------------|
|-------------------12------------------12-12----12--14--12------------------|
|--12--14-14-14-----14--14-12-14----------14---------------------------------|
|----------------------------------------------------------------------------|
|----------------------------------------------------------------------------|

|-----------------------------------------------------------|
|--12-------------------------------------------------------|
|--12-------------------------------------------------------|
|-------14-12-----------------------------------------------|
|----------------14-12-10------------10-12-12-10------------|
|----------------------------12-10-12-----------------------|

|------------------------------------------------------------|
|--12--------------------------------------------------------|
|--12--------------------------------------------------------|
|------14-12-------------------------------------------------|
|--------------14-12-10-------------10-12-12-10-12-----------|
|--------------------------12-10-12--------------------------|

|------------------------------------------------------------------------------------|
|-------------------12------------------------------------12-12-14-14-14-12----------|
|-------------------12------------------------------------12-12-14-14-14-12----------|
|--12--14-14-14-------14-14--14-14--12-14--14-14-------------------------------------|
|------------------------------------------------------------------------------------|
|------------------------------------------------------------------------------------|

|--------------------------------------------------|
|-------------------------------------12-12--------|
|------------------12----------------12-12---------|
|--12-14-14-14-----14-14---------------------------|
|--------------------------------------------------|
|--------------------------------------------------|

.


Comments