Metallica - One Chords & Tabs

 

One Chords & Tabs

Metallica Chords & Tabs

Version: 1 Type: Tab 3 ratings
1 star 2 stars 3 stars 4 stars 5 stars
comments

One Tab

   
One 
One 
written by Hetfield, & Ulrich
as performed on ...And Justice for All
tab by Michael Nibaldi; climax26@hotmail.com


machine gun intro
G-----------------------------------------------------0
D-----4-----0------4-----0------4-----0------4-----0---
A--2-----2-------------------2-----2-------------------
E---------------3-----3-------------------3-----3------

G-----------------------------------------------------------
D-----4-----0------4-----0------4-----0---------------------
A--2-----2------0-----0---------------------2----2----2--4-2
E----------------------------3-----3------0----2----0-------
intro (very clean)

G--------------------------------------------------------
D----4--0-0-4-0----4--0-0-4-0----4--0-0-4-0----4--0-0-4-0
A--2---------------------------2-------------------------
E----------------3---------------------------3-----------

G-------------------------0------------------------------------
D----4--0-0-4-0----4--0-4------4--0-0-4-0--4-2-4-2------0------
A--2-------------0------------------------------------5-------7
E----------------------------3----------------------3-----3-5--
verse riff (still clean)

e------------------------------1-----------0 r ----
B----------------------------1---1-----0---- e ----
G------0-7--7-7-7----------0---------0---0-- p ----
D----7------------7-0-5--3---------2-------- e ----
A--5---------------------------------------- a -3-2
E------------------------------------------- t ----
bridge (more clean)

D-----2--4--2--------4--2--4/6\4-2--4/5-7
A--5--0--2--0--5--4--2--0--2/4\2-0--2/3-5
E--3-----------3--2----------------------
Hold my breath... (not clean)

D----2-4-2-----4-2-4/6\4-2-4--
A--5-0-2-0-5-4-2-0-2/4\2-0-2-- repeat 2 times
E--3-------3-2----------------
Now the world...(still not clean)

D--2-0-2-0------------4-4---4-4/5---5  repeat
A--3-0-3-0-5-5-5-5-5--2-2---2-2/3---3  4 times (maybe more)
E----------3-3-3-3-3------2-------3--  then
          pm........      .       .

D--5-5-5-7-5--4-4-4-5-4--4-4---4-4/5---5  repeat -2
A--7-7-7-7-7--5-5-5-5-5--2-2---2-2/3---3  twice  -2
E----------------------------2-------3--         -0
                           pm.       .
crunch bridge

D--------------------------------2----------2/3
A--------------------------------2----------2/3
E--0-0-0-0-0--0-0-0-0-0--0-0-0-0-0--0-0-0-0-0/1
  pm............................    .......
Darkness riff

D--------------------------------
A--7--7-8--5--5-8--7--7-8--5--5--
E-------------------------------7
between darkness and landmine

D----------2----------2-----2
A----------2----------2-----3
E--0-0-0-0-0--0-0-0-0-0-0-0-1
  pm.........................
after landmine
[ Tab from: http://www.guitartabs.cc/tabs/m/metallica/one_tab.html ]
D------5-----5
A------5-----5
E--0-0-3-0-0-3
 pm...   ...
mixed in with above riff after solo
 
 intro solo
  1       2       3  4    1       2   3       4          1        2  3  4
|-----------------------|------------------------------|--------------------|
|-----------------------|-----3p2-----3p2---------3----|-3p2----------------|
|---------2---4b6b4-----|---------4-------2------------|-----4--------------|
|-----2h4---------------|------------------------------|--------------------|
|-----------------------|------------------------------|--------------------|
|-----------------------|------------------------------|--------------------|
 
    1       2       3       4          1     2     3     4
|----------------------------------|----------------------------|
|-----7\5---5\4---4\2---2p0--------|------------------------2h3-|
|---------7-----------4-----0h2----|-2/4--------------2/4-------|
|----------------------------------|----------------------------|
|----------------------------------|----------------------------|
|----------------------------------|----------------------------|
 
    1   2    3        4         1     2     3     4       1     2     
|---------------------------|-------------------------|-------------|
|-2-------------2---3p2-----|-------------------------|-------------|
|---------2/4-----------2---|-2/4---------------------|-------------|
|---------------------------|-------------------------|-------------|
|---------------------------|-------------------------|-------------|
|---------------------------|-------------------------|-------------|
 
    1     2     3         4       1           2      3     4     
|-----------------}14---19----|-17-15-14-15--------------------|
|-----------------{x----------|-------------15-----------------|
|-----------------}x----------|--------------------------------|
|-----------------{x----------|--------------------------------|
|-----------------------------|--------------------------------|
|-----------------------------|--------------------------------|
 
    1       2     3       4          1       2          3      4     
|--------------------------------|---------------------------------|
|--------------------------------|---------------------------------|
|-----7p6-7-----9p7-9-------11p9-|-11----11/12---12---11-----------|
|--------------------------------|---------------------------------|
|--------------------------------|---------------------------------|
|--------------------------------|---------------------------------|
 
    1         2          3           4            1          2 
|---------------------------------------------|----------------12-----
|----------------------------------12---------|----12-14---15--------- 
|-----------11-12-14---------11-12------------|-11-------------------- 
|--------12---------------12---------------12-|----------------------- 
|-----14---------------14---------------14----|----------------------- 
|---------------------------------------------|----------------------- 
 
    3         4           1         2      3     4
 -----------------------|------------------------------|
 ---15---14---12---14---|-14-----15-12-----------------|
 -----------------------|------------------------------|
 -----------------------|------------------------------|
 -----------------------|------------------------------|
 -----------------------|------------------------------|
   
 
[ classical solo ]
|----------------------------|----------------------|----------------------|
|-------------10p7-----7-----|-10-----10---8---7----|-7h8p7----------------|
|------------------7---------|--------------------9-|--------7-------------|
|----------------------------|----------------------|----------------------|
|-(5)------------------------|----------------------|----------------------|
|----------------------------|----------------------|----------------------|
 
|-/10-8-7-----7---8-|---------17p14-----14-|-17---17-15--14---15p14--------|
|---------10--------|-8~~~~~---------15----|-------------------------------|
|-------------------|----------------------|-------------------------------|
|-------------------|----------------------|-------------------------------|
|-------------------|----------------------|-------------------------------|
|-------------------|----------------------|-------------------------------|
 
|------------------15--17--|--19p17p15-19p17p15-19p17p15-14-15----14-------|
|-15------15--19-----------|-----------------------------------17----15----|
|--------------------------|-----------------------------------------------|
|--------------------------|-----------------------------------------------|
|--------------------------|-----------------------------------------------|
|--------------------------|-----------------------------------------------|
 
|------|-------------------------------|-----------------------------------|
|------|-/8---8--8\7-------------------|-/13----13---13---13---12----------|
|------|-/7---7--7----7----------------|-/12----12---12---12---12----------|
|------|-------------------------------|-----------------------------------|
|------|-------------------------------|-----------------------------------|
|------|-------------------------------|-----------------------------------|
 
    T          T          T          T          T          T
|---20p17p13---20p17p13---20p17p13---20p17p13---20p17p13---20p17p13--------|
|--------------------------------------------------------------------------|
|--------------------------------------------------------------------------|
|--------------------------------------------------------------------------|
|--------------------------------------------------------------------------|
|--------------------------------------------------------------------------|
[ T := tap using edge of pick ]
 
    T             T
|---20p12h13p12---20p12h13p12-|
|-----------------------------|
|-----------------------------|
|-----------------------------|
|-----------------------------|
|-----------------------------|
 
 
[ fast solo (COOL !). Okay this looks hard but with a little practice .... ]
 
  T         T        T        T        T        T        T        T
E-19p15p12--19p15p12-19p15p12-19p15p12-19p15p12-19p15p12-19p15p12-19p15p12-|
B--------------------------------------------------------------------------|
G--------------------------------------------------------------------------|
D--------------------------------------------------------------------------|
A--------------------------------------------------------------------------|
E--------------------------------------------------------------------------|
[ T := Tap using edge of pick; p := pull off finger or pick                ]
 
  T         T        T        T        T        T        T        T
E-20p15p12--20p15p12-20p15p12-20p15p12-20p15p12-20p15p12-20p15p12-20p15p12-|
B--------------------------------------------------------------------------|
G--------------------------------------------------------------------------|
D--------------------------------------------------------------------------|
A--------------------------------------------------------------------------|
E--------------------------------------------------------------------------|
 
  T         T        T        T        T        T        T        T
E--------------------------------------------------------------------------|
B-19p15p12--19p15p12-19p15p12-19p15p12-19p15p12-19p15p12-19p15p12-19p15p12-|
G--------------------------------------------------------------------------|
D--------------------------------------------------------------------------|
A--------------------------------------------------------------------------|
E--------------------------------------------------------------------------|
 
  T         T        T        T        T        T        T        T
E--------------------------------------------------------------------------|
B-20p15p12--20p15p12-20p15p12-20p15p12-20p15p12-20p15p12-20p15p12-20p15p12-|
G--------------------------------------------------------------------------|
D--------------------------------------------------------------------------|
A--------------------------------------------------------------------------|
E--------------------------------------------------------------------------|
 
  T         T        T        T        T        T        T        T
E--------------------------------------------------------------------------|
B-17p13p10--17p13p10-17p13p10-17p13p10-17p13p10-17p13p10-17p13p10-17p13p10-|
G--------------------------------------------------------------------------|
D--------------------------------------------------------------------------|
A--------------------------------------------------------------------------|
E--------------------------------------------------------------------------|
 
  T         T        T        T        T        T        T        T
E--------------------------------------------------------------------------|
B-18p13p10--18p13p10-18p13p10-18p13p10-18p13p10-18p13p10-18p13p10-18p13p10-|
G--------------------------------------------------------------------------|
D--------------------------------------------------------------------------|
A--------------------------------------------------------------------------|
E--------------------------------------------------------------------------|
 
  T        T     T     T     T     T      T     T    T    T    T    T
E---------------------------------------|----------------------------------|
B-17p12h14-17p12-17p10-17p12-17p10-17p8-|-17p10-17p8-17p7-17p8-17p7-17p5---|
G---------------------------------------|----------------------------------|
D---------------------------------------|----------------------------------|
A---------------------------------------|----------------------------------|
E---------------------------------------|----------------------------------|
 
E------------------------------14-14-14-|-15-15-15--17-17-17----------------
B-/12-12-12--12-12-12--12--12-----------|---------------------15-15-15------
G---------------------------------------|-----------------------------------
D---------------------------------------|-----------------------------------
A---------------------------------------|-----------------------------------
E---------------------------------------|-----------------------------------
 
E-17-17-17-17-|-22^24-------22^24----22^24~|~~~~~~~~\---------------15-----|
B-------------|----------------------------|--------------/17--------------|
G-------------|----------------------------|-------------------------------|
D-------------|----------------------------|-------------------------------|
A-------------|----------------------------|-------------------------------|
E-------------|----------------------------|-------------------------------|
 
E-17p15---------------15h17p15-------------|-15h17p15-------------15h17p15--
B--------17-15-17-19-----------17-15-17-19-|----------17-15-17-19-----------
G------------------------------------------|--------------------------------
D------------------------------------------|--------------------------------
A------------------------------------------|--------------------------------
E------------------------------------------|--------------------------------
 
E-----------15-|-17p15------------15-17p15---------15h17----|
B-17-17-19-----|--------15-17-19------------17--15----------|
G--------------|--------------------------------------------|
D--------------|--------------------------------------------|
A--------------|--------------------------------------------|
E--------------|--------------------------------------------|
 
E-19p17p15-----19p17p15-----19p17p15------19p17p15----------|
B----------15-----------15------------15------------15------|
G-----------------------------------------------------------|
D-----------------------------------------------------------|
A-----------------------------------------------------------|
E-----------------------------------------------------------|
 
E-19p17--------19p17--------19p17---------19p17p15----------|
B----------15-----------15------------15--------------------|
G-----------------------------------------------------------|
D-----------------------------------------------------------|
A-----------------------------------------------------------|
E-----------------------------------------------------------|
 
E-------15-------15-------15-------15-|-18^19-15-------15-18^19-15-------15-|
B-18^20----18^20----18^20----18^20----|----------18^20-------------18^20----|
G-------------------------------------|-------------------------------------|
D-------------------------------------|-------------------------------------|
A-------------------------------------|-------------------------------------|
E-------------------------------------|-------------------------------------|
 
E-19p17p15-17----17p15----15----------|-------------------------------------|
B----------------------19-------------|-19p17p15-17-----15h17p15\13--15-----|
G-------------------------------------|-------------------------------------|
D-------------------------------------|-------------------------------------|
A-------------------------------------|-------------------------------------|
E-------------------------------------|-------------------------------------|
 
E------------------------------------------|--------------------------------|
B-13h15p13\12--13-----12h13p12----12-------|--------------------------------|
G------------------------------14----14p12-|-14p12----12----12--14^-14^-14^-|
D------------------------------------------|-------14----14-----------------|
A------------------------------------------|--------------------------------|
E------------------------------------------|--------------------------------|
 
E----------------------------|---------------------|------------------------|
B----------------------------|---------------------|------------------------|
G-14^16-14^16-----v14p12-----|-12-----12-----------|------------------------|
D-------------------------14-|----14------14-13-12-|------------------------|
A----------------------------|---------------------|-14-13-12-10~~~~~-------|
E----------------------------|---------------------|------------------------|
 
E---------------------------|---------------------------|-------------------|
B---------15^----------15^--|---------15^----------15^--|-17^-v-^-v-^-17^v^-|
G---------15^----------15^--|---------15^----------15^--|-17^-v---v-^-17^v^-|
D-17--17--------17--17------|-17--17--------17--17------|-------------------|
A---------------------------|---------------------------|-------------------|
E---------------------------|---------------------------|-------------------|
[ different notation : ^ := bend 1 fret up; v := release 1 fret             ]
[ imho use tremolo bar for easy playing                                     ]
 
E---------------------|------------------------|----------------------------|
B-v(17)-^-v--15----15-|--------15^---------15^-|-17-----17-----15^-------15-|
G-v(17)-^-v--15----15-|--------15^---------15^-|-17-----17-----15^----------|
D---------------17----|-17--17------17--17-----|----------------------------|
A---------------------|------------------------|----------------------------|
E---------------------|------------------------|----------------------------|
 
E-------15--------15--------15--------15-|-------15--------15--------------||
B-18^20-----18^20-----18^20-----18^20----|-18^20-----18^20-----18^20~~~~~~-||
G----------------------------------------|---------------------------------||
D----------------------------------------|---------------------------------||
A----------------------------------------|---------------------------------||
E----------------------------------------|---------------------------------||
 
E------------------------------------|------------------------------------|
B------------------------------------|------------------------------------|
G------------------------------------|------------------------------------|
D------------------------------------|------------------------------------|
A---------------------------5-5-5----|-5-5-5----4-4-4---3-3-3---2-2-2-----|
E-3-3-3--3-3-3--3--------------------|------------------------------------|
 
Riff C
  E5                                      F5
-------------------------|--------------------|
-------------------------|--------------------|
-------------------------|--------------------|
---------------2---------|--------2--------3--|
---------------2---------|--------2--------3--|
--0-0-0-0-0-0-----0-0-0--|--0-0-0----0-0-0----|
 
[ Play riff C 9 times                         ]
 
E------------------------------------|------------------------------------|
B------------------------------------|------------------------------------|
G------------------------------------|------------------------------------|
D------------------------------------|------------------------------------|
A---------------------------5-5-5----|-5-5-5----4-4-4---3-3-3---2-2-2-----|
E-0-0-0--0-0-0--0--------------------|------------------------------------|
 
[ two guitars                                                             ]
E-----------------------5--5--5------|------------------7--7--7--5--------|
B-8--8--8--7^-----------7--7--7------|--8^--------5-----8--8--8--7--------|
G-9--9--9--7^----7-------------------|--8^--------------------------------|
D----------------9-------------------|------------9-----------------------|
A------------------------------------|------------------------------------|
E------------------------------------|------------------------------------|
 
E-7--5-----5-------5-----------------|------------------------------------|
B-8--7--8--7-------7--8--7--8--------|-8--7--5--7--------7--5-----5-------|
G-------9-------------9--7--9--------|-9--7--6--7--------7--6--7--6-------|
D------------------------------------|-------------------------9----------|
A------------------------------------|------------------------------------|
E------------------------------------|------------------------------------|
 
E-----------------------5--5--5------|------------------7--7--7--5--------|
B-8--8--8--7^-----------7--7--7------|--8^--------5-----8--8--8--7--------|
G-9--9--9--7^----7-------------------|--8^--------------------------------|
D----------------9-------------------|------------9-----------------------|
A------------------------------------|------------------------------------|
E------------------------------------|------------------------------------|
 
E-7--5-----5-------5-----------------|-8--7--5--7--------7--5-----5-------|
B-8--7--8--7-------7--8--7--8--------|-10-8--7--8--------8--7--8--7-------|
G-------9-------------9--7--9--------|-------------------------9----------|
D------------------------------------|------------------------------------|
A------------------------------------|------------------------------------|
E------------------------------------|------------------------------------|
 
E-----------------------5--5--5------|------------------7--7--7--5--------|
B-8--8--8--7^-----------7--7--7------|--8^--------5-----8--8--8--7--------|
G-9--9--9--7^----7-------------------|--8^--------------------------------|
D----------------9-------------------|------------9-----------------------|
A------------------------------------|------------------------------------|
E------------------------------------|------------------------------------|
 
E-7--5-----5-------5-----------------|------------------------------------|
B-8--7--8--7-------7--8--7--8--------|-8--7--5--7--------7--5-----5-------|
G-------9-------------9--7--9--------|-9--7--6--7--------7--6--7--6-------|
D------------------------------------|-------------------------9----------|
A------------------------------------|------------------------------------|
E------------------------------------|------------------------------------|
 
E-----------------------5--5--5------|------------------7--7--7--5--------|
B-8--8--8--7^-----------7--7--7------|--8^--------5-----8--8--8--7--------|
G-9--9--9--7^----7-------------------|--8^--------------------------------|
D----------------9-------------------|------------9-----------------------|
A------------------------------------|------------------------------------|
E------------------------------------|------------------------------------|
 
E-7--5-----5-------5-----------------|------------------------------------|
B-8--7--8--7-------7--8--7--8--------|-8--7--5--7--------7--5-----5-------|
G-------9-------------9--7--9--------|-9--7--6--7--------7--6--7--6-------|
D------------------------------------|-------------------------9----------|
A------------------------------------|------------------------------------|
E------------------------------------|------------------------------------|
 
E------------------------------------|------------------------------------|
B-5----------------------------------|------------------------------------|
G-6--7--6--7-------7--6--4--6--------|-6--4--2--4--------4--2--0--2-------|
D----9--7--9-------9--7--5--7--------|-7--5--4--5--------4--2--0--2-------|
A------------------------------------|------------------------------------|
E------------------------------------|------------------------------------|
 
[ two guitars                                                             ]
 
Riff C
  E5                                      F5
-------------------------|--------------------|
-------------------------|--------------------|
-------------------------|--------------------|
---------------2---------|--------2--------3--|
---------------2---------|--------2--------3--|
--0-0-0-0-0-0-----0-0-0--|--0-0-0----0-0-0----|
 
[ Play riff C 4 times                         ]
 
  G5
-------------------------|--------------------|
-------------------------|--------------------|
-------------------------|--------------------|
-------------5--------5--|--------5--------5--|
-------------5--------5--|--------5--------5--|
--3-----3----3--3--3--3--|--3--3--3--3--3--3--|
 
  E5                                      F5
-------------------------|--------------------|
-------------------------|--------------------|
-------------------------|--------------------|
---------------2---------|--------2--------3--|
---------------2---------|--------2--------3--|
--0-0-0-0-0-0-----0-0-0--|--0-0-0----0-0-0----|
 
  G5
-------------------------|--------------------|
-------------------------|--------------------|
-------------------------|--------------------|
-------------5--------5--|--------5--------5--|
-------------5--------5--|--------5--------5--|
--3-----3----3--3--3--3--|--3--3--3--3--3--3--|
 
  E5                        F5
-------------------------|--------------------|
-------------------------|--------------------|
-------------------------|--------------------|
---------------2------2--|--------3--------3--|
---------------2------2--|--------3--------3--|
--0-0-0-0-0-0---------0--|--1--1--1--1--1--1--|
[ play this 2 bars 3 times                    ]
 
  E5                        G5
-------------------------|--------------------|--------------------|
-------------------------|--------------------|--------------------|
-------------------------|--------------------|--------------------|
---------------2------2--|--------5--------5--|--------5--------5--|
---------------2------2--|--------5--------5--|--------5--------5--|
--0-0-0-0-0-0---------0--|--3--3--3--3--3--3--|--3--3--3--3--3--3--|
 
  E5                                      F5
-------------------------|--------------------|
-------------------------|--------------------|
-------------------------|--------------------|
---------------2---------|--------2--------3--|
---------------2---------|--------2--------3--|
--0-0-0-0-0-0-----0-0-0--|--0-0-0----0-0-0----|
 
   E5
E------------------------------------|-----------------------------------||
B------------------------------------|-----------------------------------||
G------------------------------------|-----------------------------------||
D--2-2-2--2-2-2--2------------2-2-2--|--2-2-2--2-------------------------||
A--2-2-2--2-2-2--2------------2-2-2--|--2-2-2--2-------------------------||
E--0-0-0--0-0-0--0------------0-0-0--|--0-0-0--0-------------------------||



Comments