Metallica - Nothing Else Matters Chords & Tabs

 

Nothing Else Matters Chords & Tabs

Metallica Chords & Tabs

Version: 13 Type: Tab 0 ratings
1 star 2 stars 3 stars 4 stars 5 stars
comments

Nothing Else Matters Tab

e:--------------------------------------------------------|-
b:---15--------15-----------------------------------------|-
g:---14b16-----14b16b14----12---14-12-11-12-11----11------|-
D:---------------------------------------------14----12-14|-
A:--------------------------------------------------------|-
E:--------------------------------------------------------|-

e:-----------------12-------12----------------------------|-
b:-----------------------------15-12----------------------|-
g:-12-14-12--14b16----14b16----------15-12-15-14-12h14p12-|-
D:--------------------------------------------------------|-
A:--------------------------------------------------------|-
E:--------------------------------------------------------|-
[ Tab from: http://www.guitartabs.cc/tabs/m/metallica/nothing_else_matters_tab_ver_13.html ]
e:--------------------------------------------------------|-
b:-15----15-----------------------------------------------|-
g:-14b16-14b16b14-12--------------------------------------|-
D:--------------------------------------------------------|-
A:--------------------------------------------------------|-
E:--------------------------------------------------------|-

e:--/15-14----15-14--15/17-15--14h15p14----15-14----------|-
b:---------12---------------------------12-------12-------|-
g:--------------------------------------------------------|-
D:--------------------------------------------------------|-
A:--------------------------------------------------------|-
E:--------------------------------------------------------|-

e:---------------------------------------12---------------|-
b:------------15----------------------12----12-15---------|-
g:--12-14-12--14b16b14p12----12-14b16---------------------|-
D:------------------------14------------------------------|-
A:--------------------------------------------------------|-
E:--------------------------------------------------------|-

e:--------------------------------------------------------|-
b:--15b17b15p12--15b17--------12--15--12----/7--5--7--5---|-
g:--------------------------------------------------------|-
D:--------------------------------------------------------|-
A:--------------------------------------------------------|-
E:--------------------------------------------------------|-
Comments