Metallica - Nothing Else Matters Chords & Tabs

 

Nothing Else Matters Chords & Tabs

Metallica Chords & Tabs

Version: 11 Type: Tab 0 ratings
1 star 2 stars 3 stars 4 stars 5 stars
comments

Nothing Else Matters Tab

     ~Nothing Else Metters~
            solo


-------------------------|----------------------------------
--15--15-----------------|----------------------------------
--14b-14b-14--12------12-|-11--12--11------11---------------
-------------------------|-------------14------12s-14-------
-------------------------|----------------------------------
-------------------------|----------------------------------
[ Tab from: http://www.guitartabs.cc/tabs/m/metallica/nothing_else_matters_tab_ver_11.html ]
----------------12-------12-------------------------|-------
-----------------------------15--12------12---------|-------
-12-14-12--14b------14b--------------15------15--14-|12-----
----------------------------------------------------|----14-
----------------------------------------------------|-------
----------------------------------------------------|-------

------------------|-s15--14------15--14--17--|--15-----14---
--14--14--13------|----------12--------------|--------------
--14--14--13--12--|--------------------------|--------------
------------------|--------------------------|--------------
------------------|--------------------------|--------------
------------------|--------------------------|--------------

-15--14-s12------15--14--
-------------12----------
-------------------------
-------------------------
-------------------------
-------------------------





Comments