Metallica - Nothing Else Matters Chords & Tabs

 

Nothing Else Matters Chords & Tabs

Metallica Chords & Tabs

Version: 3 Type: Bass Tab 0 ratings
1 star 2 stars 3 stars 4 stars 5 stars
comments

Nothing Else Matters Bass Tab

Metallica-Nothing else matters
Esta cancion en bajo es realmente facil:
Hecho por:Pipi caracas venezuela

g --------------------------------------------------------------------
d --------------------------------------------------------------------
a -------7-5------------7-5----------7-5-----------2------7------7----
e 3-2-0-------8--3-2-0------8--3-2-0------8--0-2-3---0------0000------


g --------------------------------------------------------------------
d ------0-00000-------0-00000-------0---------------------------------
a --3-0-----------3-0-----------3-0-----------------------------------
e -------------------------------------0------------------------------

[ Tab from: http://www.guitartabs.cc/tabs/m/metallica/nothing_else_matters_btab_ver_3.html ]
g --------------------------------------------------------------------
d --------------------------------------------------------------------
a ---7-7-7----7-7-7----7-7-7----7-7-7----------------------5-5--5-5-7-
e -0-------0--------0--------0--------5-5-5--5-7-8-8-8-7-8------------


g --------------------------------------------------------------------
d ---------------------------------------------------7----------------
a ---7--------7--------7-7-7---7-7-7---7-7-7---7-------7--------------
e -0---0-000-0---3-2-0-------0-------0-------0---7-5------5-7-8-8-878-


g --------------------------------------------------------------------
d -----7----7---------------------------------------------------------
a --5----5----7----7------------7-------------------------------------
e ---------------0----0-0-0-0-0---------------------------------------

Eso es todo.
Comments