Metallica - No Leaf Clover Chords & Tabs

 

No Leaf Clover Chords & Tabs

Metallica Chords & Tabs

Version: 4 Type: Tab 0 ratings
1 star 2 stars 3 stars 4 stars 5 stars
comments

No Leaf Clover Tab

   
No Leaf Clover by Metallica 
Tabbed by Jason

I figured I'd post this since all the others on this site are so 
inclomplete. They only have the intro and maybe one or two other 
riffs. 
Tune half step down (Eb Ab Db Gb Bb Eb)

Intro 1
|-7-7-8--7-7--|-8--8---|------------|--------10p8------|
|-8-8-10-7-7--|-10-10--|----10---10-|----7-10-----10-7-|
|--9-9--9-8-8-|---9--9-|-8/9--8/9---|-8/9--------------|
|-------------|--------|------------|------------------|
|-------------|--------|------------|------------------|
|-------------|--------|------------|------------------|
These are the different riffs in the first part of the intro, listen 
to the song to figure out the order

Intro 2
|-----------|-----------------|
|-----------|-----------------|
|-----------|-----------------|
|-----------|-----------------|
|--2~--3~2~-|-2--2---2~--3~2~-|
|-0---0-----|-0000000---0-----|
  ^Fill-also played after each line in verse
[ Tab from: http://www.guitartabs.cc/tabs/m/metallica/no_leaf_clover_tab_ver_4.html ]
Verse
A5           B5
And it feels right this time
C5                  B5
On his crash course with the big time
A5                  B5               G5                C5        B5
Pays no mind to the distand thunder, new day fills his head with wonder

Chorus
Play first part of intro part one then these chords:
        E5                   Am                    B?          Am
Then it comes to be that the soothing light at the end of your tunnel
          Em                       Am
Is just a freight train comin your way

Bridge
|----------------------------------------------------|
|----------------------------------------------------|
|----------------------------------------------------|
|-222-2-222-2225-222-2-222-2228-222-2-222-2223--3--3-|
|-222-2-222-2225-222-2-222-2228-222-2-222-2223--3--3-|
|-000-0-000-0003-000-0-000-0006-000-0-000-000--0--0--|
Lead Guitar
|-------------|
|-12b---12b---|
|-12b---12b---|
|----14----14-|
|-------------|
|-------------|
Just repeat this thing over the rhythm

Last chorus play power chords instead of minor
As for the solo I know how to play it (that's not to say I'm good 
enough to play it) but I'm too lazy to tab it all out but it's mostly 
based on the E minor pentatonic scale 12th fret, uses wah pedal a lot
Listen to it about a billion times and if you're good you'll either
figure it out or something close if you wanna cover it
Good luck

Send hate mail etc. to Powerkordz@aol.com
Comments