Metallica - No Leaf Clover Chords & Tabs

 

No Leaf Clover Chords & Tabs

Metallica Chords & Tabs

Version: 13 Type: Tab 0 ratings
1 star 2 stars 3 stars 4 stars 5 stars
comments

No Leaf Clover Tab

   
NO LEAF CLOVER
As Performed on S&M and live (with arranged for 2 guitars)
Tabbed by: Mariano Arnaiz, Matiias Corrales & Freddy Araujo
Tabbed in: December 12th 2004
ALL GUITARS DOWN  SPACE (Eb)
Tempo: Moderated rock
Distortion and wah-wah needed
Were needed 3 guitar players, 2 S&M CD and 2 boxes of cold beer to tab this song
Anything to: marianoarnaiz@hotmail.com (the othe guys wont asnwere cause they don't speak English)

NOTE: Best song written with a heavy solo since the black album, LOL, any way this song kick asses

SO lest beging

Orchesta intro
  E5          G5             E5          B5            E5         G5  E5 G5 E5  G5
1|-------------------------|-------------------------|-----------------------------|
2|-------------------------|-------------------------|-----------------------------|
3|-------------------------|--------------4----------|-----------------------------|
4|-2-----------5-----------|--2-----------4----------|--2-------2--5---2--5--2--5--|
5|-2-----------5-----------|--2-----------2----------|--2-------2--5---2--5--2--5--|
6|-0-----------3-----------|--0----------------------|--0-------0--3---0--3--0--3--|
 | Pm ... . . . . . . . . . . . . . . . . . . . . . . . . . . . . . . . . . . ..  . .
1|-------------------------------|-------------------------------|----------------------|
2|-------------------------------|-------------------------------|----------------------|
3|-------------------------------|---------------------------3b--|----------------------|
4|---------------------------5b--|-------------------------------|-2--3b-------3b----3b-|
5|-2-2-2---2---2-2-2--2-2-2------|-2-2-2---2---2-2-2--2-2-2--1b--|-2--3b----2--3b--2-3b-|
6|-0-0-0---0---0-0-0--0-0-0--3b--|-0-0-0---0---0-0-0--0-0-0------|-0--------0------0----|
  pm......................       pm......................

Guitar 1 & Guitar 2 (Flute arranged for guitar) intro
  Em           Am/E          B/D#         Am/E          Em           Am/E
1|7-----7-----8------8-----|-7-----7-----8------8-----|-7-----7-----8------8-----|
2|8-----8-----10-----10----|-7-----7-----10-----10----|-8-----8-----10-----10----|
3|---9-----9------9------9-|----8-----8------9------9-|----9-----9------9------9-|
4|-------------------------|--------------------------|--------------------------|
5|-------------------------|--------------------------|--------------------------|
6|-------------------------|--------------------------|--------------------------|

  B/D#        N.C(Am/E)     Em          Am/E         B/D#        N.C(Am/E)
1|7-----7------------------|7-----7-----8------8----|7-----7------------10p8----|
2|7-----7--------10-----10-|8-----8-----10-----10---|7-----7---------10------10-|
3|---8-----8--8/9----8/9---|---9-----9------9------9|---8-----8--8/9------------|
4|-------------------------|------------------------|---------------------------|
5|-------------------------|------------------------|---------------------------|
6|-------------------------|------------------------|---------------------------|
 |gtr II(kirk) clean,      |                        |
1|-------------------------|------------------------|---------------------------|
2|-------------------------|12~--12-10-8-7----------|13-13h15--12-----------12--|
3|-------------------------|-----------------9------|---------------------------|
4|-------------------------|------------------------|---------------------------|
5|-------------------------|------------------------|---------------------------|
6|-------------------------|------------------------|---------------------------|

  Em          Am/E          B/D#        N.C.(Am/E)
1|7-----7-----8------8-----|7-----7------------8---------|
2|8-----8-----10-----10----|7-----7---------10---10------|
3|---9-----9------9------9-|---8-----8--8/9--------------|
4|-------------------------|-----------------------------|
5|-------------------------|-----------------------------|
6|-------------------------|-----------------------------|
 |                         |
1|-------------------------|12-12h14--11-----------------|.
2|----12--10--8-7----------|-----------------------------|
3|----------------9--------|-----------------------------|
4|-------------------------|-----------------------------|
5|-------------------------|-----------------------------|
6|-------------------------|-----------------------------|

Intro both guitars ,(formal heavy intro).
  N.C(E5)               E5       N.C.(E5)       E5
1|------------------------------|------------------------------|
2|------------------------------|------------------------------|
3|------------------------------|------------------------------|
4|---------------0h2-----2------|---------------0h2-----2------|
5|---2----3--3-2-0h2-----2------|---2----3--2-0-0h2-----2------|
6|-0----0------------0-0-0--0-0-|-0----0------------0-0-0--0-0-|
                     pm.    pm.                     pm.   pm..
  N.C(E5)          E5                         F#5
1|------------------------------|-----------------------------------------|
2|------------------------------|-----------------------------------------|
3|------------------------------|-----------------------------------------|
4|---------------0h2-----2------|-----------------------------------------|
5|---2----3--3-2-0h2-----2------|---2---3-2-0-2h4-4-4-4--4-4---2---3-3-2--|
6|-0----0------------0-0-0--0-0-|-0---0-------0h2-2-2-2--2-2-0------------|
                     pm.    pm..                  pm.    pm.

Verse

   A5        B5       N.C(E5)         C5        B5      N.C(E5)
1|----------------------------------|------------------------------------|
2|----------------------------------|------------------------------------|
3|-2--2-2-2--4--4-4-4---------------|-5--5-5-5--4--4-4-4-----------------|
4|-2--2-2-2--4--4-4-4---------------|-5--5-5-5--4--4-4-4-----------------|
5|-0--0-0-0--2--2-2-2---2----3--3-2-|-3--3-3-3--2--2-2-2---2----3--3-2---|
6|--------------------0----0--------|--------------------0----0----------|
 |      pm.       pm.               |      pm.       pm.                 |
1|----------------------------------|------------------------------------|
2|----------------------------------|------------------------------------|
3|----------------------------------|------------------------------------|
4|-2--2-2-2--4--4br-----------------|-5--5-5-5--4--4br-------------------|
5|-0--0-0-0--2----------2----3--3-2-|-3--3-3-3--2----------2----3--3-2---|
6|--------------------0----0--------|--------------------0----0----------|
        pm.                                pm.
   A5       B5        C5              B5                 N.C.(Em)
1|----------------------------------|------------------------------------|
2|----------------------------------|------------------------------------|
3|-2--2-----4--4------5--5----------|-4--4-4-4-4-4-4-4-------------------|
4|-2--2-2-2-4--4-4-4--5--5--5--5----|-4--4-4-4-4-4-4-4-------------------|
5|-0--0-0-0-2--2-2-2--3--3--3--3----|-2--2-2-2-2-2-2-2-----2----3--3-2---|
6|----------------------------------|--------------------0----0----------|
 |      pm.     pm.         pm.     |                                    |
1|----------------------------------|------------------------------------|
2|----------------------------------|------------------------------------|
3|----------------------------------|------------------------------------|
4|-2--2-2-2-4--4-4-4--5--5--5--5----|-4--4-4-4-4-4-4-4-------------------|
5|-0--0-0-0-2--2-2-2--3--3--3--3----|-2--2-2-2-2-2-2-2-----2----3--3-2---|
6|----------------------------------|--------------------0----0----------|
        pm.     pm.         pm.
  A5        B5        N.C.(Em)       C5         B5       N.C.(E5)
1|----------------------------------|------------------------------------|
2|----------------------------------|------------------------------------|
3|-2--2-2-2--4--4-4-4---------------|-5--5-5-5--4--4-4-4-----------------|
4|-2--2-2-2--4--4-4-4---------------|-5--5-5-5--4--4-4-4-----------------|
5|-0--0-0-0--2--2-2-2---2----3--3-2-|-3--3-3-3--2--2-2-2---2----3--3-2---|
6|--------------------0----0--------|--------------------0----0----------|
 |      pm.       pm.               |      pm.       pm.                 |
1|----------------------------------|------------------------------------|
2|----------------------------------|------------------------------------|
3|----------------------------------|------------------------------------|
4|-2--2-2-2--4--4br-----------------|-5--5-5-5--4--4br-------------------|
5|-0--0-0-0--2----------2----3--3-2-|-3--3-3-3--2----------2----3--3-2---|
6|--------------------0----0--------|--------------------0----0----------|
        pm.                                pm.
   A5       B5        G5              C5        B5
1|----------------------------------|------------------------------------|
2|----------------------------------|------------------------------------|
3|-2--2-2-2-4--4-4-4----------------|-5--5-5-5--4-4--4-4--4--4--4--4-----|
4|-2--2-2-2-4--4-4-4--5--5--5--5----|-5--5-5-5--4-4--4-4--4--4--4--4-----|
5|-0--0-0-0-2--2-2-2--5--5--5--5----|-3--3-3-3--2-2--2-2--2--2--2--2-----|
6|--------------------3--3--3--3----|------------------------------------|
 |      pm.      pm.        pm..    |      pm.            pm........     |
1|----------------------------------|------------------------------------|
2|----------------------------------|------------------------------------|
3|----------------------------------|--------------------/8--8--8--8-----|
4|-2--2-2-2-4--4-4-4----------------|-5--5-5-5--4-4--4-4-----------------|
5|-0--0-0-0-2--2-2-2--5--5--5--5----|-3--3-3-3--2-2--2-2-/6--6--6--6-----|
6|--------------------3--3--3--3----|------------------------------------|
        pm.      pm.        pm..           pm.

Chours 1

Guitar (play alone first)
  Em          Am/E          B/D#        Am/E         Em          Am/E
1|7-----7-----8------8-----|7-----7-----8------8----|7-----7-----8------8----|
2|8-----8-----10-----10----|7-----7-----10-----10---|8-----8-----10-----10---|
3|---9-----9------9------9-|---8-----8------9------9|---9-----9------9------9|
4|-------------------------|------------------------|------------------------|
5|-------------------------|------------------------|------------------------|
6|-------------------------|------------------------|------------------------|

(Guitar 2 enters here)
  B/D#        Am/E           Em            Am           B7        Am
1|7-----7-----8------8-----|-0----0-0-0-x--0-0-0-0-0|---2-2-2-2-x-0-0-0-0-0--|
2|7-----7-----10-----10----|-0--0-0-0-0-x--1-1-1-1-1|-x-4-4-4-4-x-1-1-1-1-1--|
3|---8-----8------9------9-|-0--0-0-0-0-x--2-2-2-2-2|-x-2-2-2-2-x-2-2-2-2-2--|
4|-------------------------|-2--2-2-2-2-x--2-2-2-2-2|-x-4-4-4-4-x-2-2-2-2-2--|
5|-------------------------|-2--2-2-2-2-x--0-0-0-0-0|-x-2-2-2-2-x-0---0-0-0--|
6|-------------------------|-0--0-0-0-0-------------|-----------x------------|
 |                         |                        |                        |
1|-------------------------|------------------------|------------------------|
2|-------------------------|------------------------|------------------------|
3|-11br-11br-11br---14brp12|------------------------|-----------------14brp12|
4|-------------------------|-14~~~~~~~~---------13br|~~~~-(13)b~~------------|
5|-------------------------|------------------------|------------------------|
6|-------------------------|------------------------|------------------------|
                                                          hold bend.
   Em            Am            B7        Am
1|-0----0-0-0-x--0-0-0-0-0-|---2-2-2-2-x-0-0-0-0-0--|
2|-0--0-0-0-0-x--1-1-1-1-1-|-x-4-4-4-4-x-1-1-1-1-1--|
3|-0--0-0-0-0-x--2-2-2-2-2-|-x-2-2-2-2-x-2-2-2-2-2--|
4|-2--2-2-2-2-x--2-2-2-2-2-|-x-4-4-4-4-x-2-2-2-2-2--|
5|-2--2-2-2-2-x--0-0-0-0-0-|-x-2-2-2-2-x-0---0-0-0--|
6|-0--0-0-0-0--------------|-----------x------------|
 |                         |                        |
1|-------------------------|------------------------|
2|-------------------------|------------------------|
3|-------------------------|-----------------14brp12|
4|-14~~~~~~~~----------13br|~~~~-(13)b~~------------|
5|-------------------------|------------------------|
6|-------------------------|------------------------|
                                 hold bend.

Verse 2
(both guitars)

1|---------------|
2|---------------|
3|---------------|
4|---------------|
5|---2----3--3-2-|
6|-0----0--------|
[ Tab from: http://www.guitartabs.cc/tabs/m/metallica/no_leaf_clover_tab_ver_13.html ]
  A5        B5        N.C.(Em)       C5         B5       N.C.(E5)
1|----------------------------------|------------------------------------|
2|----------------------------------|------------------------------------|
3|-2--2-2-2--4--4-4-4---------------|-5--5-5-5--4--4-4-4-----------------|
4|-2--2-2-2--4--4-4-4---------------|-5--5-5-5--4--4-4-4-----------------|
5|-0--0-0-0--2--2-2-2---2----3--3-2-|-3--3-3-3--2--2-2-2---2----3--3-2---|
6|--------------------0----0--------|--------------------0----0----------|
 |      pm.       pm.               |      pm.       pm.                 |
1|----------------------------------|------------------------------------|
2|----------------------------------|------------------------------------|
3|----------------------------------|------------------------------------|
4|-2--2-2-2--4--4br-----------------|-5--5-5-5--4--4br-------------------|
5|-0--0-0-0--2----------2----3--3-2-|-3--3-3-3--2----------2----3--3-2---|
6|--------------------0----0--------|--------------------0----0----------|
        pm.                                pm.
   A5       B5        G5              C5        B5
1|----------------------------------|------------------------------------|
2|----------------------------------|------------------------------------|
3|-2--2-2-2-4--4-4-4----------------|-5--5-5-5--4-4--4-4--4--4--4--4-----|
4|-2--2-2-2-4--4-4-4--5--5--5--5----|-5--5-5-5--4-4--4-4--4--4--4--4-----|
5|-0--0-0-0-2--2-2-2--5--5--5--5----|-3--3-3-3--2-2--2-2--2--2--2--2-----|
6|--------------------3--3--3--3----|------------------------------------|
 |      pm.      pm.        pm..    |      pm.            pm........     |
1|----------------------------------|------------------------------------|
2|----------------------------------|------------------------------------|
3|----------------------------------|--------------------/8--8--8--8-----|
4|-2--2-2-2-4--4-4-4----------------|-5--5-5-5--4-4--4-4-----------------|
5|-0--0-0-0-2--2-2-2--5--5--5--5----|-3--3-3-3--2-2--2-2-/6--6--6--6-----|
6|--------------------3--3--3--3----|------------------------------------|
        pm.      pm.        pm..           pm.


Chorus 2
Guitar (play alone first)
  Em          Am/E          B/D#        Am/E         Em          Am/E
1|7-----7-----8------8-----|7-----7-----8------8----|7-----7-----8------8----|
2|8-----8-----10-----10----|7-----7-----10-----10---|8-----8-----10-----10---|
3|---9-----9------9------9-|---8-----8------9------9|---9-----9------9------9|
4|-------------------------|------------------------|------------------------|
5|-------------------------|------------------------|------------------------|
6|-------------------------|------------------------|------------------------|

(Guitar 2 enters here)
  B/D#        Am/E           Em            Am           B7        Am
1|7-----7-----8------8-----|-0----0-0-0-x--0-0-0-0-0|---2-2-2-2-x-0-0-0-0-0--|
2|7-----7-----10-----10----|-0--0-0-0-0-x--1-1-1-1-1|-x-4-4-4-4-x-1-1-1-1-1--|
3|---8-----8------9------9-|-0--0-0-0-0-x--2-2-2-2-2|-x-2-2-2-2-x-2-2-2-2-2--|
4|-------------------------|-2--2-2-2-2-x--2-2-2-2-2|-x-4-4-4-4-x-2-2-2-2-2--|
5|-------------------------|-2--2-2-2-2-x--0-0-0-0-0|-x-2-2-2-2-x-0---0-0-0--|
6|-------------------------|-0--0-0-0-0-------------|-----------x------------|
 |                         |                        |                        |
1|-------------------------|------------------------|------------------------|
2|-------------------------|------------------------|------------------------|
3|-11br-11br-11br---14brp12|------------------------|-----------------14brp12|
4|-------------------------|-14~~~~~~~~---------13br|~~~~-(13)b~~------------|
5|-------------------------|------------------------|------------------------|
6|-------------------------|------------------------|------------------------|
                                                          hold bend.
   Em            Am            B7        Am
1|-0----0-0-0-x--0-0-0-0-0-|---2-2-2-2-x-0-0-0-0-0--|
2|-0--0-0-0-0-x--1-1-1-1-1-|-x-4-4-4-4-x-1-1-1-1-1--|
3|-0--0-0-0-0-x--2-2-2-2-2-|-x-2-2-2-2-x-2-2-2-2-2--|
4|-2--2-2-2-2-x--2-2-2-2-2-|-x-4-4-4-4-x-2-2-2-2-2--|
5|-2--2-2-2-2-x--0-0-0-0-0-|-x-2-2-2-2-x-0---0-0-0--|
6|-0--0-0-0-0--------------|-----------x------------|
 |                         |                        |
1|-------------------------|------------------------|
2|-------------------------|------------------------|
3|-------------------------|-----------------14brp12|
4|-14~~~~~~~~----------13br|~~~~-(13)b~~------------|
5|-------------------------|------------------------|
6|-------------------------|------------------------|
                                 hold bend.

.
   C             B7          Em                      C            D
1|-0--0-0-0-0-x--2-2-2-2-2-|-0---0--0--0--0--0--0--|-0--0--0-0-0--2-2-2-2--|
2|-1--1-1-1-1-x--0-0-0-0-0-|-0---0--0--0--0--0--0--|-1--1--1-1-1--3-3-3-3--|
3|-0--0-0-0-0-x--2-2-2-2-2-|-0---0--0--0--0--0--0--|-0--0--0-0-0--2-2-2-2--|
4|-2--2-2-2-2-x--4-4-4-4-4-|-2---2--2--2--2--2--2--|-2--2--2-2-2--0-0-0-0--|
5|-3--3-3-3-3-x--2-2-2-2-2-|-2---2--2--2--2--2--2--|-3--3--3-3-3-----------|
6|-------------------------|-0---0--0--0--0--0--0--|-----------------------|
 |                         |                       |                       |
1|-------------------------|-----------------------|-----------------------|
2|-------------------------|-----------------12----|-----------------------|
3|-12~~~~------14~~--------|-14brp12---------12----|-14brp12-12~-14~---12--|
4|-------------------------|---------14~-14-----14-|-----------------------|
5|-------------------------|-----------------------|-----------------------|
6|-------------------------|-----------------------|-----------------------|

  B5
1|-----------------------------|
2|-----------------------------|
3|-2--2--2--2-----4--4--4--4---|
4|-4--4--4--4-----4--4--4--4---|.
5|-2--2--2--2-----2--2--2--2---|
6|-----------------------------|
 |                             |
1|-----------------------------|
2|-----------------------------|
3|-11br-(11br)-(11br)-(11br)11-|
4|-----------------------------|
5|-----------------------------|
6|-----------------------------|


Pre solo & possible solo backing
  N.C(E5)               E5       N.C.(E5)       E5
1|------------------------------|
2|------------------------------|
3|------------------------------|
4|---------------0h2-----2------|
5|---2----3--3-2-0h2-----2------|
6|-0----0------------0-0-0--0-0-|

Solo :
                   E5
1|--7-----8---10--|-12--12--12-------12---------12----------------|
2|--10b---11b-13b-|-15b-15b-15b--/12----12-15b-----15p12----------|
3|----------------|--------------------------------------14p12----|
4|----------------|--------------------------------------------14-|
5|----------------|-----------------------------------------------|
6|----------------|-----------------------------------------------|
  E5
1|-------------------------------------------12----------------------|
2|----------------------------------------12----12-15-12h15p12----12-|
3|-14b-14b-14b-14--12----12---------12-14----------------------14b---|
4|--------------------14~---14~-/14----------------------------------|
5|-------------------------------------------------------------------|
6|-------------------------------------------------------------------|
  E5                  F#5
1|--------------------|-------14h17p14------------------------------|
2|--------------------|-14h17----------17p14-14h17p14---------------|
3|-14p12-14p12-----12-|-------------------------------16p14-16b-16--|b
4|-------------14-----|---------------------------------------------|
5|--------------------|---------------------------------------------|
6|--------------------|---------------------------------------------|
  F#5      E5
1|--------|------------------------------------15br-----12-15p12----|
2|--------|---------15b----------15b-----------------15-------------|
3|--14----|------12-----------12-----------12-----------------------|
4|-----16-|--/14----------/14----------/14--------------------------|
5|--------|---------------------------------------------------------|
6|--------|---------------------------------------------------------|

1|----12-15p12----12-15-16b-17b-17b-17b~--12-15-12h15p12----12-------|
2|-15----------15----------------------------------------15----15p12-|
3|-------------------------------------------------------------------|
4|-------------------------------------------------------------------|
5|-------------------------------------------------------------------|
6|-------------------------------------------------------------------|
                                          F#5
1|--------------------------------------|-------14-----14-------|
2|----12-15-12--------------------------|---17b----17b----17p14-|
3|-14----------14-12--14br-12----12-----|-----------------------|
4|----------------------------14----14\-|-----------------------|
5|--------------------------------------|-----------------------|
6|--------------------------------------|-----------------------|

1|-----14------------14--------19br-17-----|
2|-17b----17p14--17b----17p14-----------19-|
3|-----------------------------------------|
4|-----------------------------------------|
5|-----------------------------------------|
6|-----------------------------------------|
both guitars)
  E5          G5             E5          B5            E5         G5  E5 G5 E5  G5
1|-------------------------|-------------------------|-----------------------------|
2|-------------------------|-------------------------|-----------------------------|
3|-------------------------|--------------4----------|-----------------------------|
4|-2-----------5-----------|--2-----------4----------|--2-------2--5---2--5--2--5--|
5|-2-----------5-----------|--2-----------2----------|--2-------2--5---2--5--2--5--|
6|-0-----------3-----------|--0----------------------|--0-------0--3---0--3--0--3--|
 | Pm ... . . . . . . . . . . . . . . . . . . . . . . . . . . . . . . . . . . ..  . .
1|-------------------------------|-------------------------------|----------------------|
2|-------------------------------|-------------------------------|----------------------|
3|-------------------------------|---------------------------3b--|----------------------|
4|---------------------------5b--|-------------------------------|-2--3b-------3b----3b-|
5|-2-2-2---2---2-2-2--2-2-2------|-2-2-2---2---2-2-2--2-2-2--1b--|-2--3b----2--3b--2-3b-|
6|-0-0-0---0---0-0-0--0-0-0--3b--|-0-0-0---0---0-0-0--0-0-0------|-0--------0------0----|
  pm......................       pm......................


Interlude
  E5                         G5  E5                     Bb5
1|-------------------------------|-------------------------------|
2|-------------------------------|-------------------------------|
3|-------------------------------|---------------------------3b--|
4|---------------------------5b--|-------------------------------|
5|-2-2-2---2---2-2-2--2-2-2------|-2-2-2---2---2-2-2--2-2-2--1b--|
6|-0-0-0---0---0-0-0--0-0-0--3b--|-0-0-0---0---0-0-0--0-0-0------|
 | pm......................      | pm......................      |
1|-------------------------------|-------------------------------|
2|-12b----12b----12b----12b------|-12b----12b----12b----12b------|
3|-12b----12b----12b----12b------|-12b----12b----12b----12b------|
4|-----14-----14-----14-----13/14|-----14-----14-----14------13--|
5|-------------------------------|-------------------------------|
6|-------------------------------|-------------------------------|

  E5                        F5/C  F5/C  F5/C
1|---------------------------------------------|
2|---------------------------------------------|
3|---------------------------------------------|
4|--------------------------3b-------3b-----3b-|
5|-2-2-2---2---2-2-2--2-2-2-3b----2--3b--2--3b-|
6|-0-0-0---0---0-0-0--0-0-0-------0------0-----|
 | pm......................                    |
1|---------------------------------------------|
2|-12b----12b----12b----12b-------x--10b-x--10b|
3|-12b----12b----12b----12b-------x--10b-x--10b|
4|-----14-----14-----14-----13/14-x--10b-x--10b|
5|---------------------------------------------|
6|---------------------------------------------|

  E5           A5          B5           A5          E5           A5
1|------------------------|------------------------|------------------------|
2|------------------------|------------------------|------------------------|
3|-----------------------2|-----------4-----------2|-----------------------2|
4|-----------2-2-2-2-2-2-2|-4-4-4-4-4-4-2-2-2-2-2-2|-----------2-2-2-2-2-2-2|
5|-2-2-2-2-2-2-0-0-0-0-0-0|-2-2-2-2-2-2-0-0-0-0-0-0|-2-2-2-2-2-2-0-0-0-0-0-0|
6|-0-0-0-0-0-0------------|------------------------|-0-0-0-0-0-0------------|
 | pm.................... |........................|........................|
1|-7-----7-----8-----8----|-7-----7-----8-----8----|-7-----7-----8-----8----|
2|-8-----8-----10----10---|-7-----7-----10----10---|-8-----8-----10----10---|
3|----9-----9-----9-----9-|----8-----8-----9-----9-|----9-----9-----9-----9-|
4|------------------------|------------------------|------------------------|
5|------------------------|------------------------|------------------------|
6|------------------------|------------------------|------------------------|

  B5
1|---------------|
2|---------------|
3|----4b-----4b--|
4|----4b-----4b--|
5|----2b-----2b--|
6|-2------2------|
 |               |
1|-5--7b--5--7b--|
2|-5--7b--5--7b--|
3|---------------|
4|---------------|
5|---------------|
6|---------------|

Last heavy and load verse
Both guitars)
     E5       A5           B5           A5
1|----------------------|------------------------|
2|----------------------|------------------------|
3|o---------x-2-2-2-2-2-|x-4-4-4-4-4-x-2-2-2-2-2o|
4|o-------2-x-2-2-2-2-2-|x-4-4-4-4-4-x-2-2-2-2-2o|
5|--2-2-2-2-x-0-0-0-0-0-|x-2-2-2-2-2-x-0-0-0-0-0-|
6|--0-0-0-0-------------|------------------------|


    E5        B5           C5          B5
1|----------------------|------------------------|
2|----------------------|------------------------|
3|o---------------4-4-4-|------5-5-5---------4-4o|
4|o-----2-2---4-4-4-4-4-|--5-5-5-5-5---4-4-4-4-4o|
5|--2-2-2-2---2-2-2-2-2-|--3-3-3-3-3---2-2-2-2-2-|
6|--0-0-0-0-------------|------------------------|

James: (w/dist)
E5               B5              C5           B5
1|-----------------------------|-----------------------------|
2|-----------------------------|-----------------------------|
3|o----------------------------|----------------------------o|
4|o--------------4--4--4--4----|-5--5--5--5---4--4--4--4----o|
5|--2--2--2--2---2--2--2--2----|-3--3--3--3---2--2--2--2-----|
6|--0--0--0--0-----------------|-----------------------------|
 |kirk:                        |                             |
1|-----------------------------|-----------------------------|
2|-12-----12-----12-----12-----|-13-----13-----12-----12-----|
3|o12-----12-----11-----11-----|-12-----12-----11-----11----o|
4|o----14-----14-----13-----13-|-----14-----14-----13-----13o|
5|-----------------------------|-----------------------------|
6|-----------------------------|-----------------------------|

then the final riff:(2gtrs)w/dist
  E5                     G5 E5                    F5/C
1|-------------------------|------------------------------------|---|
2|-------------------------|------------------------------------|---|
3|-------------------------|------------------------------------|---|
4|-----------------------5b|-----------------------3b---3b---3b-|-2-|
5|-2-2-2--2--2-2-2-2-2-2---|-2-2-2--2--2-2-2-2-2-2-3b---3b---3b-|-2-|
6|-0-0-0--0--0-0-0-0-0-0-3b|-0-0-0--0--0-0-0-0-0-0----0----0----|-0-|
Comments