Metallica - No Leaf Clover Chords & Tabs

 

No Leaf Clover Chords & Tabs

Metallica Chords & Tabs

Version: 10 Type: Tab 0 ratings
1 star 2 stars 3 stars 4 stars 5 stars
comments

No Leaf Clover Tab

   
Metallica - No Leaf Clover Symphony Tabs...

Metallica & San Fransisco Symphony Orcestra - No Leaf Clover

Tunning: Standart Eb (Eb, Ab, Db, Gb, Bb, Eb)

Symphony Orcestra's Tabs (For Guitar)

(Play with "Clean Tone" and sustainer)

Intro:
eb|--------------------------------------------------------------------|
Bb|--------------------------------------------------------------------|
Gb|--9-9-9--9--9-9--9-9-9--9---12---9-9-9--9--9-9--9-9-9--9---8--------|
Db|--9-9-9--9--9-9--9-9-9--9---12---9-9-9--9--9-9--9-9-9--9---8--------|
Ab|--7-7-7--7--7-7--7-7-7--7---10---7-7-7--7--7-7--7-7-7--7---6--------|
Eb|--0-0-0--0--0-0--0-0-0-----------0-0-0--0--0-0--0-0-0---------------|


eb|--------------------------------------------------------------------|
Bb|--------------------------------------------------------------------|
Gb|--9-9-9--9--9-9--9-9-9--9---12---9-9-9--9--9-9--9-9-9--9---8--------|
Db|--9-9-9--9--9-9--9-9-9--9---12---9-9-9--9--9-9--9-9-9--9---8--------|
Ab|--7-7-7--7--7-7--7-7-7--7---10---7-7-7--7--7-7--7-7-7--7---6--------|
Eb|--0-0-0--0--0-0--0-0-0-----------0-0-0--0--0-0--0-0-0---------------|


eb|--------------------------------------------------------------------|
Bb|--------------------------------------------------------------------|
Gb|--9-9-9--9--9-9--9-9-9--9---12---9-9-9--9--9-9--9-9-9--9---8--------|
Db|--9-9-9--9--9-9--9-9-9--9---12---9-9-9--9--9-9--9-9-9--9---8--------|
Ab|--7-7-7--7--7-7--7-7-7--7---10---7-7-7--7--7-7--7-7-7--7---6--------|
Eb|--0-0-0--0--0-0--0-0-0-----------0-0-0--0--0-0--0-0-0---------------|


eb|--------------------------------------------------------------------|
Bb|--------------------------------------------------------------------|
Gb|--9-9-9--9--9-9--9-9-9--9--12---9--12---9--12-----------------------|
Db|--9-9-9--9--9-9--9-9-9--9--12---9--12---9--12-----------------------|
Ab|--7-7-7--7--7-7--7-7-7--7--10---7--10---7--10-----------------------|
Eb|--0-0-0--0--0-0--0-0-0----------------------------------------------|


eb|-------------------------------------------------------------------------|
Bb|--12-------12--10-------------13---12---10-------------------------------|
Gb|-------------------12--11--9---------------------------------------------|
Db|-------------------------------------------------------------------------|
Ab|-------------------------------------------------------------------------|
Eb|-------------------------------------------------------------------------|


eb|--------------------------14---11----11--12--11------12--11--------------|
Bb|--12---12--10------------------------------------13----------13--12--12--|
Gb|---------------12--11--9-------------------------------------------------|
Db|-------------------------------------------------------------------------|
Ab|-------------------------------------------------------------------------|
Eb|-------------------------------------------------------------------------|


eb|-----------------------------------------11--12--11----------------------|
Bb|--12---12--10--------------------10--12--------------13--12--------------|
Gb|---------------12--11--9--11--8------------------------------------------|
Db|-------------------------------------------------------------------------|
Ab|-------------------------------------------------------------------------|
Eb|-------------------------------------------------------------------------|


eb|-------------------------------------------------------------------------|
Bb|--12---12--10-------------------------8-9--------------------------------|
Gb|---------------12--11--9--11--8---7h9-----9------------------------------|
Db|-------------------------------------------------------------------------|
Ab|-------------------------------------------------------------------------|
Eb|-------------------------------------------------------------------------|


Distortion Part:
eb|-------------------------------------------------------------------------|
Bb|------------------------------13-12------------12----10------------------|
Gb|--9--------11-----11--12---12-------12-11--11----------------------------|
Db|---------------9---------------------------------------------------------|
Ab|-------------------------------------------------------------------------|
Eb|-------------------------------------------------------------------------|


And it feels right this....           
eb|-----------------------------------------|
Bb|-------------------12-----13--12--10-----|
Gb|--12----11------9------9--------------9--|
Db|-----------------------------------------|
Ab|-----------------------------------------|
Eb|-----------------------------------------|


...On his crash course....
eb|--------------------------------------------------|
Bb|-----------------12-----13---12---10--------------|
Gb|-12----11-----9------9-------------------12---11--|
Db|--------------------------------------------------|
Ab|--------------------------------------------------|
Eb|--------------------------------------------------|


New day fills his head with wonder, boy....
eb|-------------------15-----14-------14-15-14---14-15-14-------------------|
Bb|---------8--10-----------------------------------------------------------|
Gb|-9--11-------------------------------------------------------------------|
Db|-------------------------------------------------------------------------|
Ab|-------------------------------------------------------------------------|
Eb|-------------------------------------------------------------------------|


Says it feels right this time...
eb|-------------------------------------|
Bb|--12--10---------------10-----12-----|
Gb|----------12--11--9------------------|
Db|-------------------------------------|
Ab|-------------------------------------|
Eb|-------------------------------------|


Turned it 'round and found the right line
eb|-------------------------------------------------------------------------|
Bb|--------------------------------13-----12-------------13--12--10---------|
Gb|--12--11--12-11-9---11-----12-----------------11--12--------------12--11-|
Db|-------------------------------------------------------------------------|
Ab|-------------------------------------------------------------------------|
Eb|-------------------------------------------------------------------------|


eb|-------------------------------|
Bb|-------------------------------|
Gb|----11-12-12-14-14-16-17-16----|
Db|-------------------------------|
Ab|-------------------------------|
Eb|-------------------------------|


Then it comes to be that the soothing light at the end of your tunnel....
eb|---------------------------------------------------------|
Bb|--12----13----12--------------------------------17---16--|
Gb|-------------------14----14--12--11--12----14------------|
Db|---------------------------------------------------------|
Ab|---------------------------------------------------------|
Eb|---------------------------------------------------------|

[ Tab from: http://www.guitartabs.cc/tabs/m/metallica/no_leaf_clover_tab_ver_10.html ]
..........
eb|---------------------------------|
Bb|-------------------------13--12--|
Gb|-9--11--11--12--12--14-----------|
Db|---------------------------------|
Ab|---------------------------------|
Eb|---------------------------------|


Then it comes to be that the soothing light at the end of your tunnel
Was just a freight train coming your way
eb|---------------------------------------------------------------------|
Bb|---------------------------------------------------------------------|
Gb|--9-----------8------------9------------8-------------9--------------|
Db|---------------------------------------------------------------------|
Ab|---------------------------------------------------------------------|
Eb|---------------------------------------------------------------------|


Don't it feel right like this?
eb|-----------------------------------------|
Bb|-------------------12-----13--12--10-----|
Gb|--12----11------9------9--------------9--|
Db|-----------------------------------------|
Ab|-----------------------------------------|
Eb|-----------------------------------------|


All the pieces fall to his wish
eb|--------------------------------------------------|
Bb|-----------------12-----13---12---10--------------|
Gb|-12----11-----9------9-------------------12---11--|
Db|--------------------------------------------------|
Ab|--------------------------------------------------|
Eb|--------------------------------------------------|


“Sucker for that quick reward, boy
Sucker for that quick reward,” they say..
eb|--------------------15-----14-------14-15-14---14-15-14-------------|
Bb|----------8--10-----------------------------------------------------|
Gb|--9--11-------------------------------------------------------------|
Db|--------------------------------------------------------------------|
Ab|--------------------------------------------------------------------|
Eb|--------------------------------------------------------------------|


Then it comes to be that the soothing light at the end of your tunnel
eb|--------------------------------------------------------|
Bb|--12----13----12--------------------------------17---16-|
Gb|-------------------14----14--12--11--12----14-----------|
Db|--------------------------------------------------------|
Ab|--------------------------------------------------------|
Eb|--------------------------------------------------------|


Was just a freight train coming your way...
eb|----------------------------------|
Bb|--------------------------13--12--|
Gb|--9--11--11--12--12--14-----------|
Db|----------------------------------|
Ab|----------------------------------|
Eb|----------------------------------|


Then it comes to be that the soothing light at the end of your tunnel
Was just a freight train coming your way.......
eb|--------------------------------------------------------------------|
Bb|--------------------------------------------------------------------|
Gb|--9-----------8------------9------------8-------------9-------------|
Db|--------------------------------------------------------------------|
Ab|--------------------------------------------------------------------|
Eb|--------------------------------------------------------------------|


It's coming your way.....
eb|-------------------------------------------------------------------------|
Bb|--------------------------------------------------13---15----12--13--12--|
Gb|--12---------11-----------12-----------11--------------------------------|
Db|-------------------------------------------------------------------------|
Ab|-------------------------------------------------------------------------|
Eb|-------------------------------------------------------------------------|


Solo Part: (Play with solo)
eb|-------------------------------------------------------------------------|
Bb|----------------------------------------13---12-----------------12-------|
Gb|--9---12---9---8---9------9---11---12-------------11---12---11-----------|
Db|-------------------------------------------------------------------------|
Ab|-------------------------------------------------------------------------|
Eb|-------------------------------------------------------------------------|


eb|-------------------------------------------------------------------------|
Bb|--------------12---------13---12--------------13---12--------------------|
Gb|--9---8---9--------12--------------12---11--------------12---11----9-----|
Db|-------------------------------------------------------------------------|
Ab|-------------------------------------------------------------------------|
Eb|-------------------------------------------------------------------------|


eb|--------------------------------------------------------------------|
Bb|--------------------------------------------------------------------|
Gb|--9-9-9--9--9-9--9-9-9--9---12---9-9-9--9--9-9--9-9-9--9---8--------|
Db|--9-9-9--9--9-9--9-9-9--9---12---9-9-9--9--9-9--9-9-9--9---8--------|
Ab|--7-7-7--7--7-7--7-7-7--7---10---7-7-7--7--7-7--7-7-7--7---6--------|
Eb|--0-0-0--0--0-0--0-0-0-----------0-0-0--0--0-0--0-0-0---------------|


eb|---------------------------------------------------------------|
Bb|---------------------------------------------------------------|
Gb|--9-9-9--9--9-9--9-9-9--9--12---9--12---9--12------------------|
Db|--9-9-9--9--9-9--9-9-9--9--12---9--12---9--12------------------|
Ab|--7-7-7--7--7-7--7-7-7--7--10---7--10---7--10------------------|
Eb|--0-0-0--0--0-0--0-0-0-----------------------------------------|


eb|---------------------------------------------------------------------------|
Bb|---------------------------------------------------------------------------|
Gb|---------------------------------------------------------------------------|
Db|-----------------------------------------------------------------9--10--12-|
Ab|--4--6--7--6--7--9--7--9--10--9--10--12--10--12--14--12--14--15------------|
Eb|---------------------------------------------------------------------------|


eb|--------------------------------|
Bb|--------------------------------|
Gb|-9--12----9--12-----------------|
Db|-9--12----9--12-----------------|
Ab|-7--10----7--10-----------------|
Eb|--------------------------------|


Last Chorus:
eb|--------------------------------------------------------------------|
Bb|--------------------------------------------------------------------|
Gb|--------------------------------------------------------------------|
Db|--9---7---5---4----------4---5---7---5-5--4-4---9--7--5--4----------|
Ab|------------------------------------------------------------7-------|
Eb|--------------------------------------------------------------------|


eb|-------------------------------------------------------------------------|
Bb|-------------------------------------------------------------------------|
Gb|-------------------------------------------------------------------------|
Db|--9---7---5---4---1--2--1--------2---4---5---7---9-------5-----2---------|
Ab|-------------------------------------------------------------------------|
Eb|-------------------------------------------------------------------------|


|And repeat intro|

-------------------------------------------------------------------------------
===============================================================================
Tabbed By Emre Demir (emre_demir@msn.com)
===============================================================================
Comments