Metallica - My Friend Of Mysery Chords & Tabs

 

My Friend Of Mysery Chords & Tabs

Metallica Chords & Tabs

Version: 1 Type: Bass Tab 0 ratings
1 star 2 stars 3 stars 4 stars 5 stars
comments

My Friend Of Mysery Bass Tab

bass intro
|--10-----10-----10-14---12---10----------------------------------|
|----12-----12----------------------------------------------------|
|-0------0------0-------0---0-------------------------------------|
|-----------------------------------------------------------------|
part 2
|--9-----9-----9-12--10-------------------------------------------|
|---10----10------------------------------------------------------|reapet 1and2
|-0-----0-----0-----0---------------------------------------------|alot
|-----------------------------------------------------------------|

later in verse
|-------------------------------------------------------------------|
|-------------------------------------------------------------------|
|------------------------------3------------------------------------|
|--5-5-5-5-5-5-5-5-5-5-5-5-5-5---3-5-5-5-5-5-5-5-5-5-5-5-5-5-5-3-5--|


there in order of how they sould be played
|-----------------|
|-----------------|
|-----------------|
|---5-------5--5--|

[ Tab from: http://www.guitartabs.cc/tabs/m/metallica/my_friend_of_mysery_btab.html ]
|--------------------------------------------------------------------|
|--------------------------------------------------------------------|
|------0-2-3-4-------0-0---0-2--2-0-----0-2-3-4-------0-0-1-2--------|
|--2-2---------0-0-0----------------2-2---------0-0-0---------0-0-0--|


|-----------------------------------|
|-----------------------------------|
|--------------------------------0--|
|--0-0-0-0-0-0-0-0-0-0-0-0-0-0-0----|


|--------------------------------------------------------------------------|
|--------------------------------------------------------------------------|
|--------------------------------------------------------------------------|
|--2-2-----0-1--2-2-----0-3--2-2-----0-1--2-2-----0-3--2-2---2-2-0-1--2-2--|


|------------------------------------------------|
|------------------------------------------------|
|--------------------------------------------9\--|
|--2-2-2-0-3-3-2-2-2-2-2-2-0-1-2-2-2-2-2-2-0-----|


|---------------------------------------------------------------|
|---------------------------------------------------------------|
|----------------------------------------0-2-3-4-----0-0-1-2----|
|--2-2-2-2-2-2-2-2-2-2-2-2-2-2-2-2-2-2-2---------0-----------0--|
Comments