Metallica - My Friend Of Misery Chords & Tabs

 

My Friend Of Misery Chords & Tabs

Metallica Chords & Tabs

Version: 4 Type: Tab 0 ratings
1 star 2 stars 3 stars 4 stars 5 stars
comments

My Friend Of Misery Tab

You have to listen to the song a couple of times to get the right rhythm for
this. This is my first tab I don't know the whole song but it will help you on
the way to learn it, they only have bass tabs for this page.
IF YOU KNOW MORE PLEASE FEEL FREE TO TAB IT PLEASE!, I WANT TO LEARN IT ALL 

Intro.....

6|--------------------------------------------|
5|--------------------------------------------|
4|--------------------------------------------|
3|-----3--------3--------7-----5-----3--------|
2|-------5--------5--5-5---5-5---5-5----------|
1|--0--------0--------------------------------|

[ Tab from: http://www.guitartabs.cc/tabs/m/metallica/my_friend_of_misery_tab_ver_4.html ]
6|--------------------------------------------|
5|--------------------------------------------|
4|--------------------------------------------|
3|-----2-------2--------5-----3-----2---------|
2|-------3-------3--3-3---3-3---3-3-----------|
1|--0-------0---------------------------------|

Play this several times

2nd Guitar in intro (played distorted).....

6|----------------------------------------------|
5|----------------------------------------------|
4|----------------------------------------------|
3|---3---3---3---3----------2---2---2---2-slide7|
2|-----5---0---5---0----------3---0---3---------|
1|----------------------------------------------|

Verse.....

6|----------------------------------------------|
5|----------------------------------------------|
4|----------------------------------------------|
3|---3---3---3---3----------2---2---2---2-slide7|
2|-----5---0---5---0----------3---0---3---------|
1|----------------------------------------------|

You just stood there screamin........

That's it guys that's all I know ... sorry
Comments