Metallica - My Friend Of Misery Chords & Tabs

 

My Friend Of Misery Chords & Tabs

Metallica Chords & Tabs

Version: 1 Type: Tab 1 rating
1 star 2 stars 3 stars 4 stars 5 stars
comments

My Friend Of Misery Tab


      READ THE WHOLE THING FIRST OR IT WILL NOT MAKE SENCE


Some metallica that is not screwed up!   MY FRIEND OF MISERY.


   THIS IS THE FUN AND EASY INTRO DONE CORRECTLY

 E----------------------------------------------------------------------
 B----------------------------------------------------------------------
 G----------------------------------------------------------------------
 D------3-----3---------3-----3-------------2-----2--------2-----2--5\7-
 A---O-----5-----O---------5-----O-----(O)-----3-----O--------3---------
 E----------------------------------------------------------------------



 E---------------------------------------------------------------------
 B---------------------------------------------------------------------
 G---------------------------------------------------------------------
 D---(7)--3---3------3---3-------------2---2--------2----2-5\7---------
 A----------5---0------5---0------(0)----3---0--------3----------------
 E---------------------------------------------------------------------
 
    
        FIRST VERSE AND SECOND VERSE
 E--------------------------------------------------------------------------
 B--------------------------------------------------------------------------
 G--------------------------------------------------------------------------
 D--(7)--3---3------3------3---------5---2---2-------2---2--5\7-------7--7--
 A---------5---0------5------0-----3-------3---0-------3--------------------
 E--------------------------------------------------------------------------


 E----------------------------------------------------------------------------
 B----------------------------------------------------------------------------
 G----------------------------------------------------------------------------
 D---3---3------3------3---------5---2---2------2---2--5\7------7--7----------
 A-----5---0------5------0-----3-------3---0------3---------------------------
 E----------------------------------------------------------------------------


     ITS CHORUS TIME!
 
 E-----------------------------------------------------------------------------------
 B-----------------------------------------------------------------------------------
 G-----------------------------------------------------------------2--2-----2----4-4-
 D------5-----------------5----5--------------------------2--------2--2-----2----4-4-
 A--0-3-------5----7--0-3------5--7-(7)\----4-4-0---2-3-4-2--------0--0-----0--------
 E--------0-3---/5----------0---------------2-2-----------0-----0--------------------



 E---------------------------------------------------------------------------
 B---------------------------------------------------------------------------
 G--------------------------------2--2---3----4------------------------------
 D--------------------2-----------2--2---3----4--2-----------------------2---
 A--4--4--0--2--3--4--2-----------0--0---1----2--2----4--4--0--2--3--4---2---
 E--2--2--------------0-------0------------------0----2--2---------------0---



[ Tab from: http://www.guitartabs.cc/tabs/m/metallica/my_friend_of_misery_tab.html ]
 E----------------------------------------------------------------------------
 B----------------------------------------------------------------------------
 G-----2--2-----2---4--4----------------------------------2--2--3--4----------
 D-----2--2-----2---4--4------------------------2---------2--2--3--4--2-------
 A-----0--0-----0-------------4--4--0--2--3--4--2---------0--0--1--2--2----3--
 E--0-------------------------2--2--------------0-----0---------------0----0--



                                    
 E-----------------------------------------------------------------------------
 B-----------------------------------------------------------------------------
 G-------------------------------------------------------------2----2----(2)---
 D-----------2---------------2--------------------------2------3----3----(3)---
 A---3-------2----3--3-------2------0-------3-----------2------0----0----(0)---
 E---0-0-0-0-0--0-0--0-0-0-0-0---0----------0-----0-0-0-0----0-----------------



 E------------------------------------------------------------------------------
 B------------------------------------------------------------------------------
 G---2----------(2)---2-----2----------(2)------------2-----------(2)-----------
 D---2----------(2)---3-----3----------(3)------------2-----------(2)-----------
 A---0----------(0)---0-----0----------(0)------------0-----------(0)-----------
 E------------------------------------------------------------------------------




     OUTRO W/RHY. #2 (TWO TIMES)
  
 E--------------------------------------------------------------------------
 B--------------------------------------------------------------------------
 G--------------------------------------------------------------------------
 D---4----4----------------2----3-------4----4----------------------5-------
 A---4----4----------------2----3-------4----4----------------------5-------
 E---2----2----------------0----1-------2----2----------------0-----3-------







 WITH RHY.#2 ONCE

 E-----------------------------------------------------------------------------
 B-----------------------------------------------------------------------------
 G------------------------2--4--4------------------------2--2---3--4-----------
 D----------------2-------2--4--4----------------2-------2--2---3--4--2----(2)-
 A--4--4--0-2-3-4-2-------0---------4--4-0-2-3-4-2-------0--0---1--2--2----(2)-
 E--2--2----------0----0------------2--2---------0--------------------0----(0)-






 PUT THIS IN STARTING AT (HEARING ONLY WHAT YOU WANT TO HEAR) 
AND WHEN FINISHED AT (YOUR OUT TO SAVE THE WORLD).YOU SHOULD RUN THROUGH IT TWICE.


RHY #1.   
        E-------------------------------------------------------
        B-------------------------------------------------------
        G-------------------------------------------------------
        D--------5--------------------------5------5------------
        A--0--5-----------5------7---0---3---------5---7--(7)\--
        E-----------0--3-----/5----------------0----------------





HERE IS THE SECOND RYTHEM

RHY #2.
       E--------------------------------------
       B--------------------------------------
       G -------------------------------------
       D-----------------------2----------2---
       A---3-------------------2----------2---
       E---0----0----0----0----0-----0----0---




Comments