Metallica - My Friend Of Misery Chords & Tabs

 

My Friend Of Misery Chords & Tabs

Metallica Chords & Tabs

Version: 4 Type: Bass Tab 0 ratings
1 star 2 stars 3 stars 4 stars 5 stars
comments

My Friend Of Misery Bass Tab

   
My Friend Of Misery - Bass Solo 
Metallica

Uses Pick
*Let ALL notes Ring*

(Play x4)
G:--10----10-----10-14------12----10-----9----9----9-12---10----9----|
D:----12----12---------12-----12----12----10---10------10---10---12--|
A:0-----0------0----------0-----0-----0-----0----0-------0----0----0-|
E:-------------------------------------------------------------------|

(Play x3)
G:------7---4-----5---------5-----5----------|
D:----7-------5--------5------5-----5--------|
A:--0-----0-----0--------0------0------------|
E:-------------------------------------------|

(Play x1)
G:------7----4-----5------7-----9------------|
D:----7--------5------5-----7-----9----------|
A:--0-----0------0------0-----0--------------|
E:-------------------------------------------|
[ Tab from: http://www.guitartabs.cc/tabs/m/metallica/my_friend_of_misery_btab_ver_4.html ]
(Play x1)
G:---10----10-----10-14------12----10-----9----9----9-12-12---10-10----9-9----|
D:-----12----12---------12-----12----12----10---10---------10-------10----10--|
A:-0-----0------0----------0-----0-----0-----0----0---------------------------|
E:----------------------------------------------------------------------------|

(continued)
G:-10-10----9-9----|
D:-------10----10--|
A:-----------------|
E:-----------------|


(fast bit)
G:---10----10-----14141414--12121212---9-9-9-9-9-9-9-9--12121212--10101010-|
D:-----12----12---12121212--12121212--1010101010101010--10101010--10101010-|
A:-0-----0-----0-----------------------------------------------------------|
E:-------------------------------------------------------------------------|

(play x3)
G:-1010101010101010-----14141414--12121212---9-9-9-9-9-9-9-9--12121212--10101010-|
D:-1212121212121212-----12121212--12121212--1010101010101010--10101010--10101010-|
A:-------------------------------------------------------------------------------|
E:-------------------------------------------------------------------------------|

(play x3)
G:-7777-4444-5-5555-|
D:-7777-5555-5-5555-|
A:------------------|
E:------------------|

G:-----7--4--5-----5-|
D:---7--7--5---5-0---|
A:-0-----------------|
E:-------------------|
Comments