Metallica - My Friend Of Misery Chords & Tabs

 

My Friend Of Misery Chords & Tabs

Metallica Chords & Tabs

Version: 3 Type: Bass Tab 0 ratings
1 star 2 stars 3 stars 4 stars 5 stars
comments

My Friend Of Misery Bass Tab

My Friend Of Misery - Bass Solo 
Metallica
Live Shit - San Francisco

!Uses Pick!
*Let ALL notes Ring*

(Play x4)
G:--10----10-----10-14------12----10-----9----9----9-12---10----9----|
D:----12----12---------12-----12----12----10---10------10---10---12--|
A:0-----0------0----------0-----0-----0-----0----0-------0----0----0-|
E:-------------------------------------------------------------------|

(Play x3)
G:------7---4-----5---------5-----5----------|
D:----7-------5--------5------5-----5--------|
A:--0-----0-----0--------0------0------------|
E:-------------------------------------------|
[ Tab from: http://www.guitartabs.cc/tabs/m/metallica/my_friend_of_misery_btab_ver_3.html ]
(Play x1)
G:------7----4-----5------7-----9------------|
D:----7--------5------5-----7-----9----------|
A:--0-----0------0------0-----0--------------|
E:-------------------------------------------|

(Play x1)
G:---10----10-----10-14------12----10-----9----9----9-12-12----
D:-----12----12---------12-----12----12----10---10---------10--
A:-0-----0------0----------0-----0-----0-----0----0------------
E:-------------------------------------------------------------

(continued)
G:-10-10----9-9----|
D:-------10----10--|
A:-----------------|
E:-----------------|

Hey sorry thats all i've got so far...but i know that is all exactly what Jason
plays~!!! I have the movie and i watched his figures in slow motion too, so its
right!  As Soon As I figure out the rest of the song i'll post on here rite
away...but in the mean while you can email me if you know the rest or figure it
out...  Futrebartender5@netscape.net
Comments