Metallica - Motorbreath Chords & Tabs

 

Motorbreath Chords & Tabs

Metallica Chords & Tabs

Version: 3 Type: Tab 2 ratings
1 star 2 stars 3 stars 4 stars 5 stars
comments

Motorbreath Tab

Motorbreath - Metallica
-----------------------

Tab by Ryan Sandor
BladePhantom74@hotmail.com

Tempo=180

|---------------|------------------------------|
|---------------|------------------------------|
|---------------|------------------------------|
|---------------|------------------------------|
|--------7---8--|-9----------------------------|
|--------5---6--|-7--7-7-7--7-7-7--7-7-7-7-7-7-|
		    PM........................|


|------------------------------|------------------------------|
|------------------------------|------------------------------|
|------------------------------|------------------------------|
|------------------------------|------------------------------|
|------------------------------|------------------------------|
|-3--3-3-3--3-3-3--3-3-3-3-3-3-|-5--5-5-5--5-5-5--5-5-5-5-5-5-|
 PM..........................................................|


|------------------------------|-------------------------------|
|------------------------------|-------------------------------|
|------------------------------|-------------------------------|
|------------------------------|-------------------------------|
|------------------------------|-------------------------------|
|-2--2-2-2--2-2-2--2-2-3-3-5-5-|-7--7-7-7--7-7-7-7-7-7-7-7-7-7-|
 PM...........................................................|


|-------------------------------|-------------------------------|
|-------------------------------|-------------------------------|
|-------------------------------|-------------------------------|
|-------------------------------|-------------------------------|
|-------------------------------|-------------------------------|
|-3--3-3-3--3-3-3-3-3-3-3-3-3-3-|-5--5-5-5--5-5-5-5-5-5-5-5-5-5-|
 PM............................................................|


|-------------------------------|
|-------------------------------|
|-------------------------------|
|-------------------------------|
|-------------------------------|
|-2--2-2-2--2-2-2-2-2-2-2-2-2-2-|
 PM............................|

  S/S
  Rhy Fig 1
||------------------------|---------------------|
||------------------------|---------------------|
||o-----------------------|---------------------|
||o-----------------------|---------------------|
||--9--9---7--9--9---7--7-|-5-5--4-4--5--5--4-4-|
||--7--7---5--7--7---5--5-|-3-3--2-2--3--3--2-2-|
			   PM..................|

			    end Rhy Fig 1
|---------------------|------------------||
|---------------------|------------------||
|---------------------|-----------------o||
|---------------------|-----------------o||
|-7-7--5-5--7--7--5-5-|-4-4-----4-4--7---||
|-5-5--3-3--5--5--3-3-|-2-2--0--2-2--5---||
 PM...................................|


Verses

  Living and dying	   laughing and crying
||------------------------|---------------------|
||------------------------|---------------------|
||o-----------------------|---------------------|
||o-----------------------|---------------------|
||--9--9---7--9--9---7--7-|-5-5--4-4--5--5--4-4-|
||--7--7---5--7--7---5--5-|-3-3--2-2--3--3--2-2-|
			   PM..................|


 Once...	       never be the same
|---------------------|-----------------|
|---------------------|-----------------|
|---------------------|-----------------|
|---------------------|-----------------|
|-7-7--5-5--7--7--5-5-|-4-4-----4-4--7--|
|-5-5--3-3--5--5--3-3-|-2-2--0--2-2--5--|
 PM...................................|


 Life...		 just how it seems
|-----------------------|---------------------|
|-----------------------|---------------------|
|-----------------------|---------------------|
|-----------------------|---------------------|
|-9--9---7--9--9---7--7-|-5-5--4-4--5--5--4-4-|
|-7--7---5--7--7---5--5-|-3-3--2-2--3--3--2-2-|
			 PM..................|


 Hard...		dirty and mean
|---------------------|-----------------|
|---------------------|-----------------|
|---------------------|-----------------|
|---------------------|-----------------|
|-7-7--5-5--7--7--5-5-|-4-4-----4-4--7--|
|-5-5--3-3--5--5--3-3-|-2-2--0--2-2--5--|
 PM...................................|


|----------------|----------------|
|----------------|----------------|
|----------------|----------------|
|----------------|----------------|
|-9-9--7--9-9--7-|-9-9--7--9-9--7-|
|-7-7--5--7-7--5-|-7-7--5--7-7--5-|


 Chorus

 Motorbreath    It's how I live...   I can't take it  any other way
|----------------|------------------|----------------|---------------|
|----------------|------------------|----------------|---------------|
|----------------|------------------|----------------|---------------|
|-4--4-----------|-7--7----4--------|----------------|---------------|
|-2--2----5--5---|-5--5----2--4--4--|-5--5----2--2---|-4-4-4--4--4---|
|---------3--3---|------------2--2--|-3--3----0--0---|-2-2-2--2--2---|


							    3rd time to Coda
 Motorbreath    The sign...	     It's going to    take your breath away
|----------------|------------------|----------------|----------------------|
|----------------|------------------|----------------|----------------------|
|----------------|------------------|----------------|----------------------|
|-4--4-----------|-7--7----4--------|----------------|----------------------|
|-2--2----5--5---|-5--5----2--4--4--|-5--5----2--2---|-4-4-4-4-4-4-4-4--4---|
|---------3--3---|------------2--2--|-3--3----0--0---|-2-2-2-2-2-2-2-2--2---|


|--------------------------------|--------------------------------|
|--------------------------------|--------------------------------|
|--------------------------------|--------------------------------|
|--4p2---4p2---4p2---4p2---4--2--|--4p2---4p2---4p2---4p2---4--2--|
|------2-----2-----2-----2-------|------2-----2-----2-----2-------|
|--------------------------------|--------------------------------|


|--------------------------------|--------------------------------|
|--------------------------------|--------------------------------|
|--------------------------------|--------------------------------|
|--4p2---4p2---4p2---4p2---4--2--|--4p2---4p2---4p2---4p2---4--2--|
|------0-----0-----0-----0-------|------2-----2-----2-----2-------|
|--------------------------------|--------------------------------|


|--------------------------------|--------------------------------|
|--------------------------------|--------------------------------|
|--------------------------------|--------------------------------|
|--4p2---4p2---4p2---4p2---4--2--|--4p2---4p2---4p2---4p2---4--2--|
|------2-----2-----2-----2-------|------2-----2-----2-----2-------|
|--------------------------------|--------------------------------|

[ Tab from: http://www.guitartabs.cc/tabs/m/metallica/motorbreath_tab_ver_3.html ]
|--------------------------------|---------------------------------||
|--------------------------------|---------------------------------||
|--------------------------------|--------------------------------o||
|--4p2---4p2---4p2---4p2---4--2--|--4p2---4p2---4p2---4p2---4--2--o||
|------0-----0-----0-----0-------|------2-----2-----2-----2--------||
|--------------------------------|---------------------------------||


|----------------------|
|----------------------|
|----------------------|
|--4---------4----5----|
|--2---------2----3----|
|----------------------|


Solo 1

*w/Wah
|----------------|-----------------------------------------|
|-12---------9-9-|-12p9----9-12p9----9-12p9----9-12p9----9-|
|-11-------------|------11--------11--------11--------11---|
|----------------|-----------------------------------------|
|----------------|-----------------------------------------|
|----------------|-----------------------------------------|


|-----9----------9----------9----------9------|
|-12^---12p9-12^---12p9-12^---12p9-12^---12p9-|
|---------------------------------------------|
|---------------------------------------------|
|---------------------------------------------|
|---------------------------------------------|


|--------------------------------------|------------------------------------|
|-----9-12p9---------------------------|------------------------------------|
|-11^--------11-9----9-11p9------------|-------------------------------9-11-|
|-----------------11--------11-9-------|--------------9-9-11p9----9-11------|
|--------------------------------11-9\-|-----7-9-9/11----------11-----------|
|--------------------------------------|-/9---------------------------------|


|-------------------------------|
|----------------------------16-|
|-11p9----9-11p9----9-9\/18^----|
|------11--------11-------------|
|-------------------------------|
|-------------------------------|

							     DS al Coda
|-----16-----16-----16-19p16-------------------|-----------------------|
|-19^----19^----19^----------19-16-16-16-19p16-|----16-19p16-19^-------|
|----------------------------------------------|-18--------------------|
|----------------------------------------------|-----------------------|
|----------------------------------------------|-----------------------|
|----------------------------------------------|-----------------------|


Coda

|--------------|
|--------------|
|--------------|
|----4----5----|
|----2----3----|
|--------------|


Solo 2

|--12p9------12p9------12p9------12p9------|
|-------12p9------12p9------12p9------12p9-|
|------------------------------------------|
|------------------------------------------|
|------------------------------------------|
|------------------------------------------|


|--12p9------12p9------12p9------12p9---------|
|-------12p9------12p9------12p9------12p9h12-|
|---------------------------------------------|
|---------------------------------------------|
|---------------------------------------------|
|---------------------------------------------|


|--12p9-12p9-11-8-8-10-7-7-9-6-6-8-5-5-7-4-4-4-4-4-|
|--------------------------------------------------|
|--------------------------------------------------|
|--------------------------------------------------|
|--------------------------------------------------|
|--------------------------------------------------|


|--4----4-7p4--------------------|-----------------------------|
|-----7-------7-4-7-4------------|----4----4----4----6--4------|
|---------------------6-4-4^---4-|----4----4----4----6--4----4-|
|----------------------------6---|--6----6----6----6-------6---|
|--------------------------------|-----------------------------|
|--------------------------------|-----------------------------|


|-----------------------------------|-------------------------------|
|-----4-7p4-------------------------|-------------------------------|
|--6^-------4h6p4---4-6-4-----------|--------------------------4-6--|
|-----------------6-------6-4-------|------------4-4-6p4---4-6------|
|-----------------------------6--4\-|-----2-4/6----------6----------|
|-----------------------------------|--4----------------------------|


|---------------------------------|------9-9-----------9-----------|
|---------------------------------|----------12^--9-9----12^-12^~--|
|--6^---4-6p4---4-6p4---4/-9--11--|--11^---------------------------|
|-----6-------6-------6-----------|--------------------------------|
|---------------------------------|--------------------------------|
|---------------------------------|--------------------------------|


|--------9---------------9-------------|
|------9---12^---9-9-------12^-12^-12^-|
|--11^---------------11^---------------|
|--------------------------------------|
|--------------------------------------|
|--------------------------------------|


|----------------9h12p9---------------------|
|--12p9-9-9-12p9--------12p9----9-12p9------|
|----------------------------12--------11-9-|
|-------------------------------------------|
|-------------------------------------------|
|-------------------------------------------|


|-----------------------------------16-|
|--------------------------------19----|
|--9-9-11p9----------------------------|
|-----------11-9-9-9-11-9--------------|
|-------------------------11-9^--------|
|--------------------------------------|


|--16--16--16--16--16--16-19p16----16-19p16-21p16-|
|--19^-----19^-----19^----------19----------------|
|-------------------------------------------------|
|-------------------------------------------------|
|-------------------------------------------------|
|-------------------------------------------------|


|--19p16----16-19p16-21p16-19p16----16-19p16-------|
|--------19----------------------19----------19-19-|
|--------------------------------------------------|
|--------------------------------------------------|
|--------------------------------------------------|
|--------------------------------------------------|


|---------------16h19p16--------------------19p16-------|
|------16-19p16----------19-16-----16-19p16-------19-16-|
|--18^-------------------------18^----------------------|
|-------------------------------------------------------|
|-------------------------------------------------------|
|-------------------------------------------------------|


|---------------19p16----16-19^--19^----|--19^---------------|
|------16-19p16-------19----------------|--------------------|
|--18^----------------------------------|--------------------|
|---------------------------------------|--------------------|
|---------------------------------------|--------------------|
|---------------------------------------|--------------------|
Comments