Metallica - Motorbreath Chords & Tabs

 

Motorbreath Chords & Tabs

Metallica Chords & Tabs

Version: 4 Type: Bass Tab 0 ratings
1 star 2 stars 3 stars 4 stars 5 stars
comments

Motorbreath Bass Tab

   
Hi! This is a great song by Metallica.. And even though, the tabs for
Motorbreath are so complicated, so I tabbed my own Motorbreath- 
which also sounds cool and are easy to play;-) Rock on

Intro:
G||------------------|------------------|
D||------------------|------------------|
A||-0-1-2------------|------------------|
E||------------------|------------------|

Main/Verse Riff:
G||---------|---------|---------|---------| x2
D||---------|---------|---------|---------|
A||---------|---------|---------|---------|
E||-775-775-|-330-330-|-553-553-|-220-220-|

G||--------------|
D||--------------|
A||--------------|
E||-775-775-775-7|

G||-----------------|---------------| x2
D||-----------------|---------------|
A||-----------------|---------------|
E||-777-333-555-222-|-333-000-222-2-|

Chorus
G||-------------|-------------|-------------|-----------|-------------|
D||-------------|-------------|-------------|-----------|-------------|
A||-2-2-0-------|-5-5-2-------|-------------|-----------|-2-2---------|
E||-------3-3---|-------2-2---|-3-3---0-0---|-2-2-0-2---|-------3-3---|
[ Tab from: http://www.guitartabs.cc/tabs/m/metallica/motorbreath_btab_ver_4.html ]
                                       
G||-------------|-------------|-------------------||
D||-------------|-------------|-------------------||
A||-5-5-2-------|-------------|-------------------||
E||-------2-2---|-3-3---0-0---|-2-2-2-2-2-2-0-2---||

Guitar Solo I
G||-------------------------|---------------------||
D||-------------------------|---------------------||
A||---4-4-4-4-4-4-4-4-2-2-4-|-4-4-4-4-4-4-4-------||
E||-------------------------|---------------4-4-4-||

                        
G||-----------------------|-----------------------||
D||-----------------------|-----------------------||
A||-4-4-4-4-4-4-4-4-2-2-4-|-4-4-4-4-4-4-4---------||
E||-----------------------|---------------4-4-4---||

Guitar Solo II
G||-------------------------|----------------------||
D||-------------------------|----------------------||
A||---4-4-4-4-4-4-4-4-2-2-4-|-4-4-4-4-4-4-4-4------||
E||-------------------------|----------------4-4-4-||

                                          6 times
G||-----------------------|-----------------------||
D||-----------------------|-----------------------||
A||-4-4-4-4-4-4-4-4-2-2-4-|-4-4-4-4-4-4-4---------||
E||-----------------------|---------------4-4-4---||
Comments