Metallica - Master Of Puppets Chords & Tabs

 

Master Of Puppets Chords & Tabs

Metallica Chords & Tabs

Version: 7 Type: Tab 35 ratings
1 star 2 stars 3 stars 4 stars 5 stars
comments

Master Of Puppets Tab

   
   Song: Master of Puppets
   Band: Metallica
   Tabber: Joe Avila
   I tried my best to keep this tab mistake free. There might be some
   mistakes on the 2nd solo but it’s pretty hard to get some tremolos
   in that part. The rest should be fine. 1st tab by the way. Yes, I 
   know some duration notes are wrong, and if they have a dot after
   them that means it’s a dotted note(duh). I’m experimenting here, 
   ok? Well there you go. Feel free to do what you want with this tab.
   Just make sure you take all the little comments out.
   Intro:
       W            Q   Q   W
   e|----------------------------|
   B|----------------------------|
   G|--9------------7---6---5----|
   D|--9------------7---6---5----|
   A|--7------------5---4---3----|
   E|--0-------------------------|

       E E E E E E E E Q   Q   H    E E E E E E E E E E E E E E E E                 4x
   e|-------------------------------------------------------------------------------||
   B|o-----------------------------------------------------------------------------o||
   G|------------------7---6---5----------------------------------------------------||
   D|------------------7---6---5----------------------------------------------------||
   A|o-----7-----6-----5---4---3---------------------------------------------------o||
   E|--0-0---0-0---0-0--------------0-0-7-0-0-6-0-0-5-0-4-0-3-0-0-0-----------------||
   PM  ...   ...   ...              ...............................

       E E E E E E E E E E E E E E E E E E E E E E E E |E| Q |E| Q |E|              2x
   e|-------------------------------------------------------------------------------||
   B|o-----------------------------------------------------------------------------o||
   G|-------------------------------------------------------------------------------||
   D|-------------------------------------------------------------------------------||
   A|o-----2-----3-----4-----3-----2-2-----2-----3-----5\4---5\4---5\4-------------o||
   E|--0-1---0-1---0-1---0-1---0-1-----0-1---0-1---0-0-3\2-0-3\2-0-3\2--------------||
   PM  ...   ...   ...   ...   ...     ...   ...   ...

       E E E E E E E E E E E E E E E E E E E E E E E E E E E E E E Q
   e|--------------------------------------------------------------------------------|
   B|o-------------------------------------------------------------------------------|
   G|--------------------------------------------------------------4-----------------|
   D|--------------------------------------------------------------4-----------------|
   A|o-----2-----3-----4-----3-----2-2-----2-----3-----4-----3-----2-----------------|
   E|--0-1---0-1---0-1---0-1---0-1-----0-1---0-1---0-1---0-1---0-1-------------------|
   PM  ...   ...   ...   ...   ...     ...   ...   ...   ...   ...

       E E E E E E E E E E E E E E E E E E E E E E E E |E| Q |E| Q |E|              2x
   e|-------------------------------------------------------------------------------||
   B|------------------------------------------------------------------------------o||
   G|-------------------------------------------------------------------------------||
   D|-------------------------------------------------------------------------------||
   A|------2-----3-----4-----3-----2-2-----2-----3-----5\4---5\4---5\4-------------o||
   E|--0-1---0-1---0-1---0-1---0-1-----0-1---0-1---0-0-3\2-0-3\2-0-3\2--------------||
   PM  ...   ...   ...   ...   ...     ...   ...   ...

       |E| Q |E| Q |E| E E E E E E E E E E E E E E E Q
   e|--------------------------------------------------------------------------------|
   B|--------------------------------------------------------------------------------|
   G|--------------------------------------------------------------------------------|
   D|------------------2-----8-----8-----8-----8-----8~~~----------------------------|
   A|--5\4---5\4---5\4-2---7-----7-----7-----7-----7---------------------------------|
   E|--3\2-0-3\2-0-3\2-0-0-----0-----0-----0-----0-----------------------------------|
   PM                  ...    ...   ...   ...   ...

       E E E E E E E E E E Q  E E E E E E E E E E E E E E Q  E Q                    6x
   e|-------------------------------------------------------------------------------||
   B|o-----------------------------------------------------------------------------o||
   G|-------------------------------------------------------------------------------||
   D|-------------------------------------------------------------------------------||
   A|o-------------------5/7--8\7-5/7-------------------5/7--5/7-------------------o||
   E|--0-0-0-0-0-0-0-0-0-3/5--6\5-3/5-0-0-0-0-0-0-0-0-0-3/5--3/5--------------------||
   PM  .................              .................
       ^^^^^^^^^^^^^They’re 9 zeros here.^^^^^^^^^^^^^^

       E E E E E E E E E E Q  E E E E E E E E E E E E E E Q  E Q                    2x
   e|-------------------------------------------------------------------------------||
   B|o-----------------------------------------------------------------------------o||
   G|-------------------------------------------------------------------------------||
   D|--------------------4-4--5\4-4-4-------------------4----4----------------------||
   A|o-------------------0-2--3\2-0-2-------------------0h2--0h2-------------------o||
   E|--2-2-2-2-2-2-2-2-2--------------2-2-2-2-2-2-2-2-2-----------------------------||
   PM  .................              .................
       ^^^^^^^^^^They’re 9 twos here.^^^^^^^^^^^^^^^^^^
       E E E E E E E E
   e|-------------------|
   B|-------------------|
   G|--4-4-4-4-4-4-4-4--|
   D|--4-4-4-4-4-4-4-4--|
   A|--2-2-2-2-2-2-2-2--|
   E|-------------------|
   PM  ...............

       E E E E Q   Q  E E E E S H       E E E E Q    Q    E E E E Q   Q             3x
   e|-------------------------------------------------------------------------------||
   B|o-----------------------------------------------------------------------------o||
   G|--9-------7---9----------------------------------------------8-----------------||
   D|--9-------7---9------9---------------------10---9------------8---9-------------||
   A|o-7-------5---7--7-9---9-9h10--------------10---9------------6---9------------o||
   E|--0-0-0-0--------------------------8-8-8-8-8----7----7-7-7-7-----7-------------||
   PM  .......        ...   .           .......           .......

       E E E E Q  Q  E E E E S H       E E E E Q     Q  T T T T Q  T T T T T
   e|--------------------------------------------------------------------------------|
   B|--------------------------------------------------------------------------------|
   G|--9-------7---9-----------------------------------------------------------------|
   D|--9-------7---9------9---------------------10---9-------------------------------|
   A|--7-------5---7--7-9---9-9h10--------------10---9--7h9p7h9p7--6h7p6h7p6---------|
   E|--0-0-0-0--------------------------8-8-8-8-8----7-------------------------------|
   PM  .......        ...   .           .......

       Q H.  Q H.  H.  E E E E E E E D    H.  E E E E E E E D    H.  E E E E E E E W
   e|--------------------------------------------------------------------------------|
   B|--------------------------------------------------------------------------------|
   G|--------------------------------------------------------------------------------|
   D|--2-2---3-3--------------------------5---------4-------2----7---------3-------2-|
   A|--2-2---1-1---2---------4-------5----3---0-0-0-2-0-0-0-0----5---0-0-0-5-0-0-0-4-|
   E|--0-0---1-1---0---0-0-0-2-0-0-0-3-----------------------------------------------|
   PM  ...   ...       .....   .....          .....   .....          .....   .....
                       ^^^^^Plz listen to the palm mutes. each of them are 3 zeros.

       H.  E E E E E E E W+H  Q H.  Q H.   H.  E E E E E E E D    Q H.  Q H.
   e|--------------------------------------------------------------------------------|
   B|--------------------------------------------------------------------------------|
   G|--------------------5-----------------------------------------------------------|
   D|--9---------7-------5----2-2---3-3----------------------5----2-2---3-3----------|
   A|--7---------5-------3----2-2---3-3----2---------4-------3----2-2---3-3----------|
   E|------0-0-0---0-0-0------0-0---1-1----0---0-0-0-2-0-0-0------0-0---1-1----------|
   PM      .....   .....      ...   ...        .....   .....      ...   ...

       E E E E E E E E E E E E E E E E E E E E E E E E E E E E E E Q
   e|--------------------------------------------------------------------------------|
   B|--------------------------------------------------------------------------------|
   G|--------------------------------------------------------------4-----------------|
   D|--------------------------------------------------------------4-----------------|
   A|------2-----3-----4-----3-----2-2-----2-----3-----4-----3-----2-----------------|
   E|--0-1---0-1---0-1---0-1---0-1-----0-1---0-1---0-1---0-1---0-1-------------------|
   PM  ...   ...   ...   ...   ...     ...   ...   ...   ...   ...

       E E E E E E E E E E E E E E E E E E E E E E E E     |E| Q |E| Q |E|          2x
   e|---------------------------------------------------|---------------------------||
   B|---------------------------------------------------|o-------------------------o||
   G|---------------------------------------------------|---------------------------||
   D|---------------------------------------------------|---------------------------||
   A|------2-----3-----4-----3-----2-2-----2-----3------|o-5\4---5\4---5\4---------o||
   E|--0-1---0-1---0-1---0-1---0-1-----0-1---0-1---0-0--|--3\2-0-3\2-0-3\2----------||
   PM  ...   ...   ...   ...   ...     ...   ...   ...

       E E E E E E E E E E Q  E E E E E E E E E E E E E E Q  E Q                    4x
   e|-------------------------------------------------------------------------------||
   B|o-----------------------------------------------------------------------------o||
   G|-------------------------------------------------------------------------------||
   D|-------------------------------------------------------------------------------||
   A|o-------------------5/7--8\7-5/7-------------------5/7--5/7-------------------o||
   E|--0-0-0-0-0-0-0-0-0-3/5--6\5-3/5-0-0-0-0-0-0-0-0-0-3/5--3/5--------------------||
   PM  .................              .................
       ^^^^^^^^^^^^^^^^Again 9 zeros.^^^^^^^^^^^^^^^^^^

       E E E E E E E E E E Q  E E E E E E E E E E E E E E Q  E Q                    2x
   e|-------------------------------------------------------------------------------||
   B|o-----------------------------------------------------------------------------o||
   G|-------------------------------------------------------------------------------||
   D|--------------------4-4--5\4-4-4-------------------4----4----------------------||
   A|o-------------------0-2--3\2-0-2-------------------0h2--0h2-------------------o||
   E|--2-2-2-2-2-2-2-2-2--------------2-2-2-2-2-2-2-2-2-----------------------------||
   PM  .................              .................
       ^^^^^^^^^^^^^^^And 9 twos here.^^^^^^^^^^^^^^^^^
       E E E E E E E E
   e|-------------------|
   B|-------------------|
   G|--4-4-4-4-4-4-4-4--|
   D|--4-4-4-4-4-4-4-4--|
   A|--2-2-2-2-2-2-2-2--|
   E|-------------------|
   PM  ...............

       E E E E Q   Q  E E E E S H       E E E E Q    Q    E E E E Q   Q             3x
   e|-------------------------------------------------------------------------------||
   B|o-----------------------------------------------------------------------------o||
   G|--9-------7---9----------------------------------------------8-----------------||
   D|--9-------7---9------9---------------------10---9------------8---9-------------||
   A|o-7-------5---7--7-9---9-9h10--------------10---9------------6---9------------o||
   E|--0-0-0-0--------------------------8-8-8-8-8----7----7-7-7-7-----7-------------||
   PM  .......        ...   .           .......           .......


       E E E E Q  Q  E E E E S H       E E E E Q     Q  T T T T T  T T T T T
   e|--------------------------------------------------------------------------------|
   B|--------------------------------------------------------------------------------|
   G|--9-------7---9-----------------------------------------------------------------|
   D|--9-------7---9------9---------------------10---9-------------------------------|
   A|--7-------5---7--7-9---9-9h10--------------10---9--7h9p7h9p7--6h7p6h7p6---------|
   E|--0-0-0-0--------------------------8-8-8-8-8----7-------------------------------|
   PM  .......        ...   .           .......

       Q H.  Q H.  H.  E E E E E E E D    H.  E E E E E E E D    H.  E E E E E E E Q
   e|--------------------------------------------------------------------------------|
   B|--------------------------------------------------------------------------------|
   G|--------------------------------------------------------------------------------|
   D|--2-2---3-3--------------------------5---------4-------2----7---------3-------2-|
   A|--2-2---1-1---2---------4-------5----3---0-0-0-2-0-0-0-0----5---0-0-0-5-0-0-0-4-|
   E|--0-0---1-1---0---0-0-0-2-0-0-0-3-----------------------------------------------|
   PM  ...   ...       .....   .....          .....   .....          .....   .....
                       Three palm mutes. remember three zeros        ^^^^^   ^^^^^
       H.  E E E E E E E W+H  Q H.  Q H.   H.  E E E E E E E D    Q H.  Q -
   e|--------------------------------------------------------------------------------|
   B|--------------------------------------------------------------------------------|
   G|--------------------5-----------------------------------------------------------|
   D|--9---------7-------5----2-2---3-3----------------------5----2-2---3-3----------|
   A|--7---------5-------3----2-2---3-3----2---------4-------3----2-2---3-3----------|
   E|------0-0-0---0-0-0------0-0---1-1----0---0-0-0-2-0-0-0------0-0---1-1----------|
   PM      .....   .....      ...   ...        .....   .....      ...   ...

       Q Q Q Q Q Q Q Q E E E Q Q Q Q Q Q Q Q Q Q Q Q Q Q Q Q Q Q Q Q Q Q Q         10x
   e|------------------0h2p0-----3--------------------------------------------------||
   B|o-------------3---------3---------3---3-----0-----0-------0-------0-----------o||
   G|--------0---2---2---------2-----0---0---0-------2-------2-------2--------------||
   D|------2---0-------------------------------2-------------------1----------------||
   A|o---2-------------------------3---------------0-----0-2-----2-----------------o||
   E|--0-----------------------------------------------------------------3----------||
       A second guitar will play behind the solo after completion of 2x of above,
       and another plays all of the bottom solo.
       Q  Q  Q  Q  Q  Q  Q  E  E  Q  Q  Q  Q  Q  Q  Q  E  E  Q
   e|-----19-15----17-14-------------17-14----15-12----------------------------------|
   B|o-17-------17-------15-15-15-15-------15-------13-13-13-13----------------------|
   G|--------------------------------------------------------------------------------|
   D|--------------------------------------------------------------------------------|
   A|o-------------------------------------------------------------------------------|
   E|--------------------------------------------------------------------------------|

       Q  Q  Q  Q  S  S  S  Q  Q  Q  Q  S  Q  Q  Q  Q  Q  Q                         2x
   e|--15-12----14-12h14p12-11----------------------11-12-14------------------------||
   B|--------13----------------13-12-13-13b15-13-15--------------------------------o||
   G|-------------------------------------------------------------------------------||
   D|-------------------------------------------------------------------------------||
   A|------------------------------------------------------------------------------o||
   E|-------------------------------------------------------------------------------||


       H.        E  E  H.        E  E  E  E  E  E  E  |---Q---| W
   E|------------------15~~------------17-15----19-15-12h15p12-----------------------|
   B|--17~~------17-19-----------17-19-------17----------------13~~------------------|
   G|--------------------------------------------------------------------------------|
   D|--------------------------------------------------------------------------------|
   A|--------------------------------------------------------------------------------|
   E|--------------------------------------------------------------------------------|

        H   H   E  E  Q   E  E  E  E  H.  E  E   Q    Q   E  E  H.
   e|-----------15-14-----15-14------------------------------------------------------|
   B|--15b-15b--------12--------12-14-12--------15-----------------------------------|
   G|-------------------------------------12-14-14b--15b--12-14----------------------|
   D|-----------------------------------------------------------14~~-----------------|
   A|--------------------------------------------------------------------------------|
   E|--------------------------------------------------------------------------------|

       Q   Q   E  Q   Q   Q   Q   Q  |--Q---|  H.    E E  H.
   e|--------------------------------------------------------------------------------|
   B|--------------------------------------------------------------------------------|
   G|------12--14-12--11------14--12-11h12p11----------------------------------------|
   D|--12-----------------12------------------10~~---7-9-10~~------------------------|
   A|--------------------------------------------------------------------------------|
   E|--------------------------------------------------------------------------------|

       E E E  E  E E  E  E  E  E  Q   Q  |--Q--|  Q  Q   Q
   e|-----------------------------15--14-11h12p11-------/19--------------------------|
   B|-----------------------12--------------------12-10------------------------------|
   G|------------9-10-12-11----12----------------------------------------------------|
   D|--7-9-10-12---------------------------------------------------------------------|
   A|--------------------------------------------------------------------------------|
   E|--------------------------------------------------------------------------------|
[ Tab from: http://www.guitartabs.cc/tabs/m/metallica/master_of_puppets_tab_ver_7.html ]
       Q  Q  Q  Q  Q  Q  Q  E  E  Q  Q  Q  Q  Q  Q  Q  E  E  Q
   e|-----19-15----17-14-------------17-14----15-12----------------------------------|
   B|o-17-------17-------15-15-15-15-------15-------13-13-13-13----------------------|
   G|--------------------------------------------------------------------------------|
   D|--------------------------------------------------------------------------------|
   A|o-------------------------------------------------------------------------------|
   E|--------------------------------------------------------------------------------|

       Q  Q  Q  Q  S  S  S  Q  Q  Q  Q  S  Q  Q  Q  Q  Q  Q                         2x
   e|--15-12----14-12h14p12-11----------------------11-12-14------------------------||
   B|--------13----------------13-12-13-13b15-13-15--------------------------------o||
   G|-------------------------------------------------------------------------------||
   D|-------------------------------------------------------------------------------||
   A|------------------------------------------------------------------------------o||
   E|-------------------------------------------------------------------------------||

     In here the second guitar will switch to distortion and play this 2x.
       Q Q Q Q Q Q Q Q E E E Q Q Q Q Q Q Q Q Q Q Q Q Q Q Q Q Q Q Q Q Q Q Q          2x
   e|------------------0h2p0-----3--------------------------------------------------||
   B|o-------------3---------3---------3---3-----0-----0-------0-------0-----------o||
   G|--------0---2---2---------2-----0---0---0-------2-------2-------2--------------||
   D|------2---0-------------------------------2-------------------1----------------||
   A|o---2-------------------------3---------------0-----0-2-----2-----------------o||
   E|--0-----------------------------------------------------------------3----------||
   PM  ...............             ...   .   ...   ...   .....   .....   .

     Listen to this part. the first guitar will play this in unison with the top riff.
        W    D        D         W    W    W                                         2x
   e|-------------------------------------------------------------------------------||
   B|o-----------------------------------------------------------------------------o||
   G|-------------------------------------------------------------------------------||
   D|---7----7--------5---------2----4----8-----------------------------------------||
   A|o--9----5--------3---------0----2----6----------------------------------------o||
   E|-------------------------------------------------------------------------------||

       Q  Q  Q  Q  Q  Q  Q  Q  Q  Q  Q  Q  Q  Q  Q  Q
   e|--------------------------------------------------------------------------------|
   B|--------------------------------------------------------------------------------|
   G|--------------------------------------------------------------------------------|
   D|--------------------------------------------------------------------------------|
   A|--2--2--2--2--2--2--2--2--2--2--2--2--2--2--2--2--------------------------------|
   E|--0--0--0--0--0--0--0--0--0--0--0--0--0--0--0--0--------------------------------|
   PM  ..............................................

       Q Q Q Q Q Q Q E E Q Q Q Q Q Q Q Q Q Q Q Q Q Q Q E E Q Q Q Q Q Q Q Q          3x
   e|-------------------------------------------------------------------------------||
   B|o-----------------------------------------------------------------------------o||
   G|-------------------------------------------------------------------------------||
   D|----------------6-6---------------6---------------6-6---------------6----------||
   A|o-4-4-5-4-4-4-4-4-4-4-4-5-4-4-4-4-4-4-4-5-4-4-4-4-4-4-4-4-5-4-4-4-4-4---------o||
   E|--2-2-3-2-2-2-2-----2-2-3-2-2-2-2---2-2-3-2-2-2-2-----2-2-3-2-2-2-2------------||
   PM  .............     .............   .............     .............

       D        W
   e|----------------|---------------------------------------------------------------|
   B|----------------|---------------------------------------------------------------|
   G|----------------|---------------------------------------------------------------|
   D|----------------|--X-X-X-X-X-X-X-X-X-X-X-X-X-X-X-X-X-X-X-X-X-X-X-X-X-X-X-X------|
   A|--5--------4----|--X-X-X-X-X-X-X-X-X-X-X-X-X-X-X-X-X-X-X-X-X-X-X-X-X-X-X-X------|
   E|--3--------2----|--X-X-X-X-X-X-X-X-X-X-X-X-X-X-X-X-X-X-X-X-X-X-X-X-X-X-X-X------|

      Okay the first guitar will play this behind the fast solo
       E E E E E E E E E E Q  E E E E E E E E E E E E E E Q  E Q                    4x
   e|-------------------------------------------------------------------------------||
   B|o-----------------------------------------------------------------------------o||
   G|-------------------------------------------------------------------------------||
   D|-------------------------------------------------------------------------------||
   A|o-------------------5/7--8\7-5/7-------------------5/7--5/7-------------------o||
   E|--0-0-0-0-0-0-0-0-0-3/5--6\5-3/5-0-0-0-0-0-0-0-0-0-3/5--3/5--------------------||
   PM  .................              .................

       E E E E E E E E E E Q  E E E E E E E E E E E E E E Q  E Q                    2x
   e|-------------------------------------------------------------------------------||
   B|o-----------------------------------------------------------------------------o||
   G|-------------------------------------------------------------------------------||
   D|--------------------4-4--5\4-4-4-------------------4----4----------------------||
   A|o-------------------0-2--3\2-0-2-------------------0h2--0h2-------------------o||
   E|--2-2-2-2-2-2-2-2-2--------------2-2-2-2-2-2-2-2-2-----------------------------||
   PM  .................               .................

The t’s here mean thirty-second note not tap. im not that stupid. play with top measure
       T  T  T  T  T  T  T  T  T  T  T  T  T  T  T  T  T  T  T  T  T  T  T  T       2x
   e|--17p12----------12-17p12----------12-17p12----------12-15p12----------12------||
   B|o-------13-12-13----------13-12-13----------13-12-13----------13-12-13--------o||
   G|-------------------------------------------------------------------------------||
   D|-------------------------------------------------------------------------------||
   A|o-----------------------------------------------------------------------------o||
   E|-------------------------------------------------------------------------------||

       T  T  T  T  T  T  T  T  T  T  T  T  T  T  T  T  T  T  T  T  T  T  T  T
   e|--19-19-19-17-17-17-15-15-15-14-14-14-17-17-17-15-15-15-14-14-14----------------|
   B|-----------------------------------------------------------------15-15-15-------|
   G|--------------------------------------------------------------------------------|
   D|--------------------------------------------------------------------------------|
   A|--------------------------------------------------------------------------------|
   E|--------------------------------------------------------------------------------|

       H    |--S--|  |-S-| |--S--|  S  S       H   Q   Q    H   Q   Q
   e|----------------17p15---------------------23b-23b-23b--24b-24b-24b--------------|
   B|--17bb-17p15p14-------15p14p13--------------------------------------------------|
   G|-------------------------------16-14~-------------------------------------------|
   D|--------------------------------------------------------------------------------|
   A|--------------------------------------------------------------------------------|
   E|--------------------------------------------------------------------------------|

       S S S  S S S S S S E E Q     E  E E E  E E E  E E E E  H
   e|-------------------------------10-8-7----8-7-------------7~~--------------------|
   B|--------------------------------------10-----10-8-7-8-10------------------------|
   G|--2-4-2b-4-3-2-2h4p2------------------------------------------------------------|
   D|---------------------2-2h4~-----------------------------------------------------|
   A|--------------------------------------------------------------------------------|
   E|--------------------------------------------------------------------------------|

       T  T T T  T T T  T  T T  T  T T  T  T  T  T  T  T  T  T
   e|--10p8p7-10p8p7-12p10p9-12p10p9-14p12p11-14p12p11-16p14p13----------------------|
   B|--------------------------------------------------------------------------------|
   G|--------------------------------------------------------------------------------|
   D|--------------------------------------------------------------------------------|
   A|--------------------------------------------------------------------------------|
   E|--------------------------------------------------------------------------------|

       T  T  T  T  T  T  T  T  T  T  T  T  T  T  T  T  T  T  T  T  T  T  T  T
   e|--17p15-14-19p17-14-17p15-14-19p17-14-17p15-14-19p17-14-17p15-14-19p17-14-------|
   B|--------------------------------------------------------------------------------|
   G|--------------------------------------------------------------------------------|
   D|--------------------------------------------------------------------------------|
   A|--------------------------------------------------------------------------------|
   E|--------------------------------------------------------------------------------|

       E   E  E   E  E   E  E   E  S  S  E  E  S  S  E  E
   e|------14-----14-----14-----14-19p14----14-19p14----14---------------------------|
   B|--17b----17b----17b----17b----------17----------17------------------------------|
   G|--------------------------------------------------------------------------------|
   D|--------------------------------------------------------------------------------|
   A|--------------------------------------------------------------------------------|
   E|--------------------------------------------------------------------------------|

       E   E  E   E  E   E  E   E  E   E  E   E  E   E  E   E
   e|------14-----14-----14-----14-----15-----15-----15-----15-----------------------|
   B|--17b----17b----17b----17b----18b----18b----18b----18b--------------------------|
   G|--------------------------------------------------------------------------------|
   D|--------------------------------------------------------------------------------|
   A|--------------------------------------------------------------------------------|
   E|--------------------------------------------------------------------------------|

       E   E  E   E  E   E  E  E   E  E   E  E   W
   e|------16-----16-----17----17-----18-----18--24/\/\/\/\/\/\/\--------------------|
   B|--19b----19b----20b----20----21b----21b-----------------------------------------|
   G|--------------------------------------------------------------------------------|
   D|--------------------------------------------------------------------------------|
   A|--------------------------------------------------------------------------------|
   E|--------------------------------------------------------------------------------|

       E E E E E E E E E E E E E E E E E E E E E E E E E E E E E E Q                2x
   e|-------------------------------------------------------------------------------||
   B|o-----------------------------------------------------------------------------o||
   G|-------------------------------------------------------------------------------||
   D|------------------------------4-4-----------------------------4----------------||
   A|o-----3-----3-----3-----3-----2-2-----3-----3-----3-----3-----2---------------o||
   E|--0-0-1-0-0-1-0-0-1-0-0-1-0-0-----0-0-1-0-0-1-0-0-1-0-0-1-0-0------------------||
   PM  ...   ...   ...   ...   ...     ...   ...   ...   ...   ...

       E E E E E E E SSS E E E E E E E S Q  H.  SSS E E E E E E E                   3x
   e|-------------------------------------------------------------------------------||
   B|o-----------------------------------------------------------------------------o||
   G|-------------------------------------------------------------------------------||
   D|--------------------------------2-4h5--5---------------------------------------||
   A|o-------------------------2-3-5--------3---333-2-3-5-3-2----------------------o||
   E|--0-0-0-0-0-0-0-000-2-3-5--------------------------------3-2-------------------||
   PM...............................            .................

       E E E E E E E SSS E E E E E E E S Q  H. SSS E E E E E E E W  SSS E E E E E E E
   e|--------------------------------------------------------------------------------|
   B|--------------------------------------------------------------------------------|
   G|--------------------------------------------------------------------------------|
   D|--------------------------------2-4-5--5----------------------------------------|
   A|--------------------------2-3-5--------3--333-2-3-5-3-2-----2--333-2-3-5-3-2----|
   E|--0-0-0-0-0-0-0-000-2-3-5-------------------------------3-2-0----------------3-2|
   PM  .............................            .................   .................

       E E E E E E E E E E E E E E E E E E E E E E E E |E| Q |E| Q |E|              2x
   e|-------------------------------------------------------------------------------||
   B|------------------------------------------------------------------------------o||
   G|-------------------------------------------------------------------------------||
   D|-------------------------------------------------------------------------------||
   A|------2-----3-----4-----3-----2-2-----2-----3-----5\4---5\4---5\4-------------o||
   E|--0-1---0-1---0-1---0-1---0-1-----0-1---0-1---0-0-3\2-0-3\2-0-3\2--------------||
   PM  ...   ...   ...   ...   ...     ...   ...   ...

       |E| Q |E| Q |E|
   e|-------------------|
   B|-------------------|
   G|-------------------|
   D|-------------------|
   A|--5\4---5\4---5\4--|
   E|--3\2-0-3\2-0-3\2--|

       E E E E E E E E E E Q  E E E E E E E E E E E E E E Q  E Q                    4x
   e|-------------------------------------------------------------------------------||
   B|o-----------------------------------------------------------------------------o||
   G|-------------------------------------------------------------------------------||
   D|-------------------------------------------------------------------------------||
   A|o-------------------5/7--8\7-5/7-------------------5/7--5/7-------------------o||
   E|--0-0-0-0-0-0-0-0-0-3/5--6\5-3/5-0-0-0-0-0-0-0-0-0-3/5--3/5--------------------||
   PM  .................              .................

       E E E E E E E E E E Q  E E E E E E E E E E E E E E Q  E Q                    2x
   e|-------------------------------------------------------------------------------||
   B|o-----------------------------------------------------------------------------o||
   G|-------------------------------------------------------------------------------||
   D|--------------------4-4--5\4-4-4-------------------4----4----------------------||
   A|o-------------------0-2--3\2-0-2-------------------0h2--0h2-------------------o||
   E|--2-2-2-2-2-2-2-2-2--------------2-2-2-2-2-2-2-2-2-----------------------------||
   PM  .................               .................

       E E E E E E E E
   e|-------------------|
   B|-------------------|
   G|--4-4-4-4-4-4-4-4--|
   D|--4-4-4-4-4-4-4-4--|
   A|--2-2-2-2-2-2-2-2--|
   E|-------------------|
   PM  ...............

       E E E E Q   Q  E E E E S H       E E E E Q    Q    E E E E Q   Q             3x
   e|-------------------------------------------------------------------------------||
   B|o-----------------------------------------------------------------------------o||
   G|--9-------7---9----------------------------------------------8-----------------||
   D|--9-------7---9------9---------------------10---9------------8---9-------------||
   A|o-7-------5---7--7-9---9-9h10--------------10---9------------6---9------------o||
   E|--0-0-0-0--------------------------8-8-8-8-8----7----7-7-7-7-----7-------------||
   PM  .......        ...   .           .......           .......


       E E E E Q  Q  E E E E S H       E E E E Q     Q  T T T T T  T T T T T
   e|--------------------------------------------------------------------------------|
   B|--------------------------------------------------------------------------------|
   G|--9-------7---9-----------------------------------------------------------------|
   D|--9-------7---9------9---------------------10---9-------------------------------|
   A|--7-------5---7--7-9---9-9h10--------------10---9--7h9p7h9p7--6h7p6h7p6---------|
   E|--0-0-0-0--------------------------8-8-8-8-8----7-------------------------------|
   PM  .......        ...   .           .......

       Q H.  Q H.  H.  E E E E E E E D    H.  E E E E E E E D    H.  E E E E E E E Q
   e|--------------------------------------------------------------------------------|
   B|--------------------------------------------------------------------------------|
   G|--------------------------------------------------------------------------------|
   D|--2-2---3-3--------------------------5---------4-------2----7---------3-------2-|
   A|--2-2---1-1---2---------4-------5----3---0-0-0-2-0-0-0-0----5---0-0-0-5-0-0-0-4-|
   E|--0-0---1-1---0---0-0-0-2-0-0-0-3-----------------------------------------------|
   PM  ...   ...       .....   .....          .....   .....          .....   .....

       H.  E E E E E E E W+H  Q H.  Q H.   H.  E E E E E E E D    Q H.  Q H.  E
   e|--------------------------------------------------------------------------------|
   B|--------------------------------------------------------------------------------|
   G|--------------------5-----------------------------------------------------------|
   D|--9---------7-------5----2-2---3-3----------------------5----2-2---3-3----------|
   A|--7---------5-------3----2-2---3-3----2---------4-------3----2-2---3-3---2------|
   E|------0-0-0---0-0-0------0-0---1-1----0---0-0-0-2-0-0-0------0-0---1-1---0------|
   PM      .....   .....      ...   ...        .....   .....      ...   ...

       E E E E E E E E E E Q  E E E E E E E E E E E E E E Q  E Q                    4x
   e|-------------------------------------------------------------------------------||
   B|o-----------------------------------------------------------------------------o||
   G|-------------------------------------------------------------------------------||
   D|-------------------------------------------------------------------------------||
   A|o-------------------5/7--8\7-5/7-------------------5/7--5/7-------------------o||
   E|--0-0-0-0-0-0-0-0-0-3/5--6\5-3/5-0-0-0-0-0-0-0-0-0-3/5--3/5--------------------||
   PM  .................              .................

      |E| Q |E| Q |E| W
   e|--------------------------------------------------------------------------------|
   B|--------------------------------------------------------------------------------|
   G|--------------------------------------------------------------------------------|
   D|--------------------------------------------------------------------------------|
   A|-5\4---5\4---5\4-2--------------------------------------------------------------|
   E|-3\2-0-3\2-0-3\2-0--------------------------------------------------------------|
That’s it have fun with it. Other tabs you might see have a different first solo.
It can be played this way or that other way but more than likely they’ll have some
parts wrong. Almost all the notes fit perfectly if you play along and up to speed
with the first solo.
Comments