Metallica - Master Of Puppets Chords & Tabs

 

Master Of Puppets Chords & Tabs

Metallica Chords & Tabs

Version: 23 Type: Tab 0 ratings
1 star 2 stars 3 stars 4 stars 5 stars
comments

Master Of Puppets Tab

   
   Song/Album: Master of Puppets/Master of Puppets
   Band: Metallica
   Tabber: Joe Avila
   I update this tab every other time I can. There might be some mistakes
   on the 2nd solo. The rest should be fine. 1st tab by the way. I know
   some duration notes are wrong, bear with it. Well there you go.
   James Hetfield: Rhythm Guitar (Guitar 1)/Vocals(EADGBe)
   Kirk Hammet: Lead Guitar (Guitar 2)(EADGBe)
   Cliff Burton: Bass/Backing Vocals(EADG)

  Intro 0:00-0:31
  Guitar 1 & 2
       W        Q  Q  W+H
   e|--------------------------|
   B|-----------------5--------|
   G|--9--------7--6--5--------|
   D|--9--------7--6--5--------|
   A|--7--------5--4--3--------|
   E|--0-----------------------|

       E E E E E E E E Q  Q  H    E E E E E E E E E E E E E E E E       4x
   e|-------------------------------------------------------------------||
   B|o-----------------------5-----------------------------------------o||
   G|------------------7--6--5------------------------------------------||
   D|------------------7--6--5------------------------------------------||
   A|o-----7-----6-----5--4--3-----------------------------------------o||
   E|--0-0---0-0---0-0------------0-0-7-0-0-6-0-0-5-0-4-0-3-0-2-1-------||
   PM  ...   ...   ...            ...   ...   ...   .   .   .....

       E E E E E E E E E E E E E E E E E E E E E E E E E E E E E E E E  2x
   e|-------------------------------------------------------------------||
   B|o-----------------------------------------------------------------o||
   G|-------------------------------------------------------------------||
   D|-------------------------------------------------------------------||
   A|o-----2-----3-----4-----3-----2-2-----2-----3-----5\4---5\4---5\4-o||
   E|--0-1---0-1---0-1---0-1---0-1-----0-1---0-1---0-0-3\2-0-3\2-0-3\2--||
   PM  ...   ...   ...   ...   ...     ...   ...   ...     .     .

  Verse 1 0:31-0:48
       E E E E E E E E E E E E E E E E E E E E E E E E E E E E E E Q
   e|--------------------------------------------------------------------|
   B|o-------------------------------------------------------------------|
   G|--------------------------------------------------------------4-----|
   D|--------------------------------------------------------------4-----|
   A|o-----2-----3-----4-----3-----2-2-----2-----3-----4-----3-----2-----|
   E|--0-1---0-1---0-1---0-1---0-1-----0-1---0-1---0-1---0-1---0-1-------|
   PM  ...   ...   ...   ...   ...     ...   ...   ...   ...   ...

       E E E E E E E E E E E E E E E E E E E E E E E E E E E E E E E E  2x
   e|-------------------------------------------------------------------||
   B|------------------------------------------------------------------o||
   G|-------------------------------------------------------------------||
   D|-------------------------------------------------------------------||
   A|------2-----3-----4-----3-----2-2-----2-----3-----5\4---5\4---5\4-o||
   E|--0-1---0-1---0-1---0-1---0-1-----0-1---0-1---0-0-3\2-0-3\2-0-3\2--||
   PM  ...   ...   ...   ...   ...     ...   ...   ...     .     .

  Fill 1 0:48-0:50
  Guitar 2
       E E E E E E E E -
   e|------------------------------------|
   B|------------------------------------|
   G|------------------------------------|
   D|------------------2-----------------|
   A|--5\4---5\4---5\4-2-----------------|
   E|--3\2-0-3\2-0-3\2-0-----------------|
   PM      .     .     .

  Fill 2 0:50-0:52
  Guitar 1
       E E E E E E E E E E E E E E -
   e|------------------------------------|
   B|------------------------------------|
   G|------------------------------------|
   D|------8-----8-----8-----8-----8~~~--|
   A|----7-----7-----7-----7-----7-------|
   E|--0-----0-----0-----0-----0---------|
   PM  ...   ...   ...   ...   ...

  Verse 2 0:52-1:27
  Guitar 1 & 2
       E E E E E E E E E E E E E E E E E E E E E E E E E E Q  E Q       6x
   e|-------------------------------------------------------------------||
   B|o-----------------------------------------------------------------o||
   G|-------------------------------------------------------------------||
   D|-------------------------------------------------------------------||
   A|o-------------------5/7---8\7-5/7-------------------5/7--5/7------o||
   E|--0-0-0-0-0-0-0-0-0-3/5-0-6\5-3/5-0-0-0-0-0-0-0-0-0-3/5--3/5-------||
   PM  .................     .         .................

       E E E E E E E E E E Q  E E E E E E E E E E E E E E Q  E Q        2x
   e|-------------------------------------------------------------------||
   B|o-----------------------------------------------------------------o||
   G|-------------------------------------------------------------------||
   D|--------------------4-4--5\4-4-4-------------------4----4----------||
   A|o-------------------0-2--3\2-0-2-------------------0h2--0h2-------o||
   E|--2-2-2-2-2-2-2-2-2--------------2-2-2-2-2-2-2-2-2-----------------||
   PM  .................              .................

       E E E E E E E E
   e|------------------------------------|
   B|------------------------------------|
   G|--4-4-4-4-4-4-4-4-------------------|
   D|--4-4-4-4-4-4-4-4-------------------|
   A|--2-2-2-2-2-2-2-2-------------------|
   E|------------------------------------|
   PM  ...............

  Chorus 1:27-2:10
       E E E E Q  Q  E E E E a  H      E E E E Q   Q    E E E E Q  Q                3x
   e|-------------------------------------------------------------------------------||
   B|o-----------------------------------------------------------------------------o||
   G|--9-------7--9---------------------------------------------8-------------------||
   D|--9-------7--9------9---------------------10--9------------8--9----------------||
   A|o-7-------5--7--7-9---9-9h10--------------10--9------------6--9---------------o||
   E|--0-0-0-0-------------------------8-8-8-8-8---7----8-8-8-8----7----------------||
   PM  .......       ...   .           .......          .......

       E E E E Q  Q  E E E E a  H    E E E E Q   Q  E E Q  E E Q  Q  H.   Q  H.
   e|--------------------------------------------------------------------------------|
   B|--------------------------------------------------------------------------------|
   G|--9-------7--9------------------------------------------------------------------|
   D|--9-------7--9------9-------------------10--9--7-5-4--4------2--2----3--3-------|
   A|--7-------5--7--7-9---9-9h10------------10--9--9-7-6--6-7-6--2--2----3--3-------|
   E|--0-0-0-0-----------------------8-8-8-8-8---7-----------8-7--0--0----1--1-------|
   PM    .....       ...   .         .......        |2 guitars-|   .. ..   .. ..

       H.   E E E E E E E D        H.   E E E E E E E D        H.   E E E E E E E W
   e|--------------------------------------------------------------------------------|
   B|------------------------------5--------------------------------------5----------|
   G|------------------------------5----------4-------2--------7----------5-------4--|
   D|--2----------4-------5--------5----------4-------2--------7----------5-------4--|
   A|--2----------4-------5--------3----0-0-0-2-0-0-0-0--------5----------3-------2--|
   E|--0----0-0-0-2-0-0-0-3-----------------------------------------3-3-3---3-3-3----|
   PM       .....   .....               .....   .....               .....   .....

       H.   E E E E E E E W+H  Q  H.   Q  H.   H.   E E E E E E E D    Q  H.   Q  H.
   e|--------------------------------------------------------------------------------|
   B|---------------------5---------------------------------------5------------------|
   G|--9----------7-------5---------------------------------------5------------------|
   D|--9----------7-------5----2--2----3--3----2------------------5----2--2----3--3--|
   A|--7----------5-------3----2--2----3--3----2------------------3----2--2----3--3--|
   E|--0----0-0-0---0-0-0------0--0----1--1----0----0-0-0-2p0-0-0------0--0----1--1--|
   PM       .....   .....       .. ..   .. ..       .....     ...       .. ..   .. ..

  Verse 1 2:10-2:20
       E E E E E E E E E E E E E E E E E E E E E E E E E E E E E E Q
   e|------------------------------------------------------------------------|
   B|------------------------------------------------------------------------|
   G|--------------------------------------------------------------4---------|
   D|--------------------------------------------------------------4---------|
   A|------2-----3-----4-----3-----2-2-----2-----3-----4-----3-----2---------|
   E|--0-1---0-1---0-1---0-1---0-1-----0-1---0-1---0-1---0-1---0-1-----------|
   PM  ...   ...   ...   ...   ...     ...   ...   ...   ...   ...

       E E E E E E E E E E E E E E E E E E E E E E E E     E E E E E E E E  2x
   e|---------------------------------------------------|-------------------||
   B|---------------------------------------------------|o-----------------o||
   G|---------------------------------------------------|-------------------||
   D|---------------------------------------------------|-------------------||
   A|------2-----3-----4-----3-----2-2-----2-----3------|o-5\4---5\4---5\4-o||
   E|--0-1---0-1---0-1---0-1---0-1-----0-1---0-1---0-0--|--3\2-0-3\2-0-3\2--||
   PM  ...   ...   ...   ...   ...     ...   ...   ...         .     .

  Verse 2 2:20-2:47
       E E E E E E E E E E E E E E E E E E E E E E E E E E Q  E Q       4x
   e|-------------------------------------------------------------------||
   B|o-----------------------------------------------------------------o||
   G|-------------------------------------------------------------------||
   D|-------------------------------------------------------------------||
   A|o-------------------5/7---8\7-5/7-------------------5/7--5/7------o||
   E|--0-0-0-0-0-0-0-0-0-3/5-0-6\5-3/5-0-0-0-0-0-0-0-0-0-3/5--3/5-------||
   PM  .................     .         .................

       E E E E E E E E E E Q  E E E E E E E E E E E E E E Q  E Q        2x
   e|-------------------------------------------------------------------||
   B|o-----------------------------------------------------------------o||
   G|-------------------------------------------------------------------||
   D|--------------------4-4--5\4-4-4-------------------4----4----------||
   A|o-------------------0-2--3\2-0-2-------------------0h2--0h2-------o||
   E|--2-2-2-2-2-2-2-2-2--------------2-2-2-2-2-2-2-2-2-----------------||
   PM  .................              .................

       E E E E E E E E
   e|------------------------------------|
   B|------------------------------------|
   G|--4-4-4-4-4-4-4-4-------------------|
   D|--4-4-4-4-4-4-4-4-------------------|
   A|--2-2-2-2-2-2-2-2-------------------|
   E|------------------------------------|
   PM  ...............

  Chorus 2:47-3:30
       E E E E Q  Q  E E E E a  H      E E E E Q   Q    E E E E Q  Q                3x
   e|-------------------------------------------------------------------------------||
   B|o-----------------------------------------------------------------------------o||
   G|--9-------7--9---------------------------------------------8-------------------||
   D|--9-------7--9------9---------------------10--9------------8--9----------------||
   A|o-7-------5--7--7-9---9-9h10--------------10--9------------6--9---------------o||
   E|--0-0-0-0-------------------------8-8-8-8-8---7----8-8-8-8----7----------------||
   PM  .......       ...   .           .......          .......

       E E E E Q  Q  E E E E a  H    E E E E Q   Q  E E Q  E E Q  Q  H.   Q  H.
   e|--------------------------------------------------------------------------------|
   B|--------------------------------------------------------------------------------|
   G|--9-------7--9------------------------------------------------------------------|
   D|--9-------7--9------9-------------------10--9--7-5-4--4------2--2----3--3-------|
   A|--7-------5--7--7-9---9-9h10------------10--9--9-7-6--6-7-6--2--2----3--3-------|
   E|--0-0-0-0-----------------------8-8-8-8-8---7-----------8-7--0--0----1--1-------|
   PM    .....       ...   .         .......        |2 guitars-|   .. ..   .. ..

       H.   E E E E E E E D        H.   E E E E E E E D        H.   E E E E E E E W
   e|--------------------------------------------------------------------------------|
   B|------------------------------5--------------------------------------5----------|
   G|------------------------------5----------4-------2--------7----------5-------4--|
   D|--2----------4-------5--------5----------4-------2--------7----------5-------4--|
   A|--2----------4-------5--------3----0-0-0-2-0-0-0-0--------5----------3-------2--|
   E|--0----0-0-0-2-0-0-0-3-----------------------------------------3-3-3---3-3-3----|
   PM       .....   .....               .....   .....               .....   .....

       H.   E E E E E E E W+H  Q  H.   Q  H.   H.   E E E E E E E D    Q  H.   Q  H.
   e|--------------------------------------------------------------------------------|
   B|---------------------5---------------------------------------5------------------|
   G|--9----------7-------5---------------------------------------5------------------|
   D|--9----------7-------5----2--2----3--3----2------------------5----2--2----3--3--|
   A|--7----------5-------3----2--2----3--3----2------------------3----2--2----3--3--|
   E|--0----0-0-0---0-0-0------0--0----1--1----0----0-0-0-2p0-0-0------0--0----1--1--|
   PM       .....   .....       .. ..   .. ..       .....     ...       .. ..   .. ..

  Solo 1 3:30-5:06
  Guitar 2
       Q Q Q Q Q Q Q Q a E a Q Q Q Q Q Q Q Q Q Q Q Q Q Q Q Q Q Q Q Q Q Q Q    10x
   e|------------------0h2p0-----3---------------------------------------------||
   B|o-------------3---------3---------3---3-----0-----0-------0-------0------o||
   G|--------0---2---2---------2-----0---0---0-------2-------2-------2---------||
   D|------2---0-------------------------------2-------------------1-----------||
   A|o---2-------------------------3---------------0-----0-2-----2------------o||
   E|--0-----------------------------------------------------------------3-----||
 
Guitar 3
       W    D        D         W    W    W
   e|---------------------------------------------------------------------------|
   B|--------------------------2^^^-4^^^-8^^^-----------------------------------|
   G|--2^^^-4^^^^^^^-5^^^^^^^---------------------------------------------------|
   D|---------------------------------------------------------------------------|
   A|---------------------------------------------------------------------------|
   E|---------------------------------------------------------------------------|

Guitar 1
        Q   Q   Q   Q   Q   Q   Q   E  E  Q   Q   Q   Q   Q   Q   Q   E  E  Q
   e|------19--15------17--14----------------17--14------15--12-----------------|
   B|o-17----------17----------15--15-15-15----------15----------13--13-13-13---|
   G|---------------------------------------------------------------------------|
   D|---------------------------------------------------------------------------|
   A|o--------------------------------------------------------------------------|
   E|---------------------------------------------------------------------------|
Guitar 3
    |   Q   Q   Q   Q   Q   Q   Q   E  E  Q   Q   Q   Q   Q   Q   Q   E  E  Q
   e|------22--19------20--17----------------20--17------19--15-----------------|
   B|o-20----------20----------19--19-19-19----------19----------17--17-17-17---|
   G|---------------------------------------------------------------------------|
   D|---------------------------------------------------------------------------|
   A|o--------------------------------------------------------------------------|
   E|---------------------------------------------------------------------------|

        Q   Q   Q   Q  a   E  a  Q   Q   Q   Q   a  Q   Q   Q   Q  a  Q   Q    2x
   e|--15--12------14--12h14p12-11-----------------------------11-11/12--14----||
   B|----------13-------------------13--12--13--13b15--13--15-----------------o||
   G|--------------------------------------------------------------------------||
   D|--------------------------------------------------------------------------||
   A|-------------------------------------------------------------------------o||
   E|--------------------------------------------------------------------------||
    |   Q   Q   Q   Q  a   E  a  Q   Q   Q   Q   a  Q   Q   Q   Q  a  Q   Q    2x
   e|--19--15------17--15h17p15-14-----------------------------15-15/17--19----||
   B|----------17-------------------17--16--17--17b19--17--19-----------------o||
   G|--------------------------------------------------------------------------||
   D|--------------------------------------------------------------------------||
   A|-------------------------------------------------------------------------o||
   E|--------------------------------------------------------------------------||

Guitar 1
        H.        E  E  H.        E  E  E  E  E  E  E  a  E  a  W
   E|------------------15~~---------15-17-15----19-15-12h15p12------------------|
   B|--17~~------17-19-----------19----------19----------------13~~-------------|
   G|---------------------------------------------------------------------------|
   D|---------------------------------------------------------------------------|
   A|---------------------------------------------------------------------------|
   E|---------------------------------------------------------------------------|

        H   H         E  E  Q   E  E  E  E  H.  E  E  Q    Q    Q   E   E  H.
   e|----------------15-14-----15-14--------------------------------------------|
   B|--15b17r15b17r--------12--------12-15-12--------15---15--------------------|
   G|------------------------------------------12-14-14br-14br-14br----12-------|
   D|---------------------------------------------------------------14----14~~--|
   A|---------------------------------------------------------------------------|
   E|---------------------------------------------------------------------------|

        Q   Q   E  Q   Q   Q   Q   Q  a  E  a  H.    E E  H.
   e|---------------------------------------------------------------------------|
   B|---------------------------------------------------------------------------|
   G|------12--14-12--11------14--12-11h12p11-----------------------------------|
   D|--12-----------------12------------------10~~-----9-10~~-------------------|
   A|-----------------------------------------------12--------------------------|
   E|---------------------------------------------------------------------------|

       E  E  E  E  E  E  E  E  E  E  Q   Q  a  E  a  Q  Q   Q
   e|-------------------------------15--14-11h12p11-------/19-------------------|
   B|-------------------------12--------------------12-10-----------------------|
   G|-------------------11-12----12---------------------------------------------|
   D|--9-10-12-10-12-14---------------------------------------------------------|
   A|---------------------------------------------------------------------------|
   E|---------------------------------------------------------------------------|

Guitar 1
        Q   Q   Q   Q   Q   Q   Q   E  E  Q   Q   Q   Q   Q   Q   Q   E  E  Q
   e|------19--15------17--14----------------17--14------15--12-----------------|
   B|o-17----------17----------15--15-15-15----------15----------13--13-13-13---|
   G|---------------------------------------------------------------------------|
   D|---------------------------------------------------------------------------|
   A|o--------------------------------------------------------------------------|
   E|---------------------------------------------------------------------------|
Guitar 3
    |   Q   Q   Q   Q   Q   Q   Q   E  E  Q   Q   Q   Q   Q   Q   Q   E  E  Q
   e|------22--19------20--17----------------20--17------19--15-----------------|
   B|o-20----------20----------19--19-19-19----------19----------17--17-17-17---|
   G|---------------------------------------------------------------------------|
   D|---------------------------------------------------------------------------|
   A|o--------------------------------------------------------------------------|
   E|---------------------------------------------------------------------------|
[ Tab from: http://www.guitartabs.cc/tabs/m/metallica/master_of_puppets_tab_ver_23.html ]
        Q   Q   Q   Q  a   E  a  Q   Q   Q   Q   a  Q   Q   Q   Q  a  Q   Q    2x
   e|--15--12------14--12h14p12-11-----------------------------11-11/12--14----||
   B|----------13-------------------13--12--13--13b15--13--15-----------------o||
   G|--------------------------------------------------------------------------||
   D|--------------------------------------------------------------------------||
   A|-------------------------------------------------------------------------o||
   E|--------------------------------------------------------------------------||
    |   Q   Q   Q   Q  a   E  a  Q   Q   Q   Q   a  Q   Q   Q   Q  a  Q   Q    2x
   e|--19--15------17--15h17p15-14-----------------------------15-15/17--19----||
   B|----------17-------------------17--16--17--17b19--17--19-----------------o||
   G|--------------------------------------------------------------------------||
   D|--------------------------------------------------------------------------||
   A|-------------------------------------------------------------------------o||
   E|--------------------------------------------------------------------------||
Guitar 2
       Q Q Q Q Q Q Q Q a E a Q Q Q Q Q Q Q Q Q Q Q Q Q Q Q Q Q Q Q Q Q Q Q     2x
   e|------------------0h2p0-----3---------------------------------------------||
   B|o-------------3---------3---------3---3-----0-----0-------0-------0------o||
   G|--------0---2---2---------2-----0---0---0-------2-------2-------2---------||
   D|------2---0-------------------------------2-------------------1-----------||
   A|o---2-------------------------3---------------0-----0-2-----2------------o||
   E|--0-----------------------------------------------------------------3-----||
   PM  ...............             ...   .   ...   ...   .....   .....   .

Guitar 1
        W    D        D         W    W    W                                    2x
   e|--------------------------------------------------------------------------||
   B|o------------------------------------------------------------------------o||
   G|--------------------------------------------------------------------------||
   D|---9----7--------5---------2----4----8------------------------------------||
   A|o--7----5--------3---------0----2----6-----------------------------------o||
   E|--------------------------------------------------------------------------||

Fill 5:06-5:11
Guitar 1 & 2
       Q  Q  Q  Q  Q  Q  Q  Q  Q  Q  Q  Q  Q  Q  Q  Q
   e|---------------------------------------------------------------------------|
   B|---------------------------------------------------------------------------|
   G|---------------------------------------------------------------------------|
   D|---------------------------------------------------------------------------|
   A|--2--2--2--2--2--2--2--2--2--2--2--2--2--2--2--2---------------------------|
   E|--0--0--0--0--0--0--0--0--0--0--0--0--0--0--0--0---------------------------|
   PM  .....................................

Bridge 5:11-5:43
       Q Q Q Q Q Q Q E E Q Q Q Q Q Q Q Q Q Q Q Q Q Q Q E E Q Q Q Q Q Q Q Q     3x
   e|--------------------------------------------------------------------------||
   B|o------------------------------------------------------------------------o||
   G|--------------------------------------------------------------------------||
   D|----------------6-6---------------6---------------6-6---------------6-----||
   A|o-4-4-5-4-4-4-5-4-4-4-4-5-4-4-4-5-4-4-4-5-4-4-4-5-4-4-4-4-5-4-4-4-5-4----o||
   E|--2-2-3-2-2-2-3-----2-2-3-2-2-2-3---2-2-3-2-2-2-3-----2-2-3-2-2-2-3-------||
   PM  .............     .............   .............     .............
       D        W
   e|----------------|----------------------------------------------------------|
   B|----------------|----------------------------------------------------------|
   G|----------------|----------------------------------------------------------|
   D|----------------|--X-X-X-X-X-X-X-X-X-X-X-X-X-X-X-X-X-X-X-X-X-X-X-X-X-X-X---|
   A|--5--------4----|--X-X-X-X-X-X-X-X-X-X-X-X-X-X-X-X-X-X-X-X-X-X-X-X-X-X-X---|
   E|--3--------2----|--X-X-X-X-X-X-X-X-X-X-X-X-X-X-X-X-X-X-X-X-X-X-X-X-X-X-X---|

Second Solo 5:43-6:09
Guitar 2
        T  T  T  T  T  T  T  T  T  T  T  T  T  T  T  T  T  T  T  T  T  T  T  T       2x
   e|--17p12----------12-17p12----------12-17p12----------12-15p12----------12-------||
   B|o-------13-12-13----------13-12-13----------13-12-13----------13-12-13---------o||
   G|--------------------------------------------------------------------------------||
   D|--------------------------------------------------------------------------------||
   A|o------------------------------------------------------------------------------o||
   E|--------------------------------------------------------------------------------||

        T  T  T  T  T  T  T  T  T  T  T  T  T  T  T  T  T  T  T  T  T  T  T  T
   e|--19-19-19-17-17-17-15-15-15-14-14-14-17-17-17-15-15-15-14-14-14-----------------|
   B|-----------------------------------------------------------------15-15-15--------|
   G|---------------------------------------------------------------------------------|
   D|---------------------------------------------------------------------------------|
   A|---------------------------------------------------------------------------------|
   E|---------------------------------------------------------------------------------|

       H  a  E  a  E  a  T  a  a  T  a   S  a  S  H
   e|--------------------------17p15---------------------------------------/\---------|
   B|--17b19r17b19r17-17p15p14-------15p14p13-----------------------------/--\--------|
   G|-----------------------------------------16-14~---{6}\--------/\----/----\-------|
   D|------------------------------------------------------\--/\--/--\--/------\--/\--|
   A|-------------------------------------------------------\/--\/----\/--------\/--\/|
   E|---------------------------------------------------------------------------------|

       S S S  S S S S S S E E Q   E  E  E  E  E  E  E  E  E  E  E  H    T  T  T  T  T
   e|---------------------------------------------------------------------------------|
   B|---------------------------/15-13-12----13-12----------------12~~-12-12-12-12-12-|
   G|--2-4-2b-4-3-2-2h4p2-----------------14-------14-12-11-12-14---------------------|
   D|---------------------2-2h4~------------------------------------------------------|
   A|---------------------------------------------------------------------------------|
   E|---------------------------------------------------------------------------------|


        T  T  T  T  T  T  T  T  T T  T  T T  T  T  T  T  T  T  T  T  T  T  T  T T  T
   e|--------------------------12--------12-------------14-------14-------15-15-------|
   B|--12-15-13-12-15-13-12-13---15-15-13---15-11h15-15----17-15----15-17------17/19--|
   G|---------------------------------------------------------------------------------|
   D|---------------------------------------------------------------------------------|
   A|---------------------------------------------------------------------------------|
   E|---------------------------------------------------------------------------------|

        T  T  T  T  T  T  T  T  T  T  T  T  T  T  T  T  T  T  T  T  T  T  T  T  T  T
   e|--17-------19-17-------17----------19-17-------17----------19-17-------17--------|
   B|-----20-19-------19-19----21-19-19-------19-19----21-19-19-------19-19----21-19--|
   G|---------------------------------------------------------------------------------|
   D|---------------------------------------------------------------------------------|
   A|---------------------------------------------------------------------------------|
   E|---------------------------------------------------------------------------------|

       T  T  T   T  T  E    E  E   E  E      E  E   S  S  E   E  S  E
   e|-----19-17--------14--14-----14-----------14--19p14-----19p14-14-----------------|
   B|--19-------19-19--17b----17b----17b--/17b-----------17b-------17b----------------|
   G|---------------------------------------------------------------------------------|
   D|---------------------------------------------------------------------------------|
   A|---------------------------------------------------------------------------------|
   E|---------------------------------------------------------------------------------|

       E    E  E   E  E   E  E  E  E   E  E   E  E   E  E   E  E   E
   e|------14-----14-----14-14-14-----14-----15-----15-----15-----15------------------|
   B|--17b----17b----17b----------17b----18b----18b----18b----18b---------------------|
   G|---------------------------------------------------------------------------------|
   D|---------------------------------------------------------------------------------|
   A|---------------------------------------------------------------------------------|
   E|---------------------------------------------------------------------------------|

        E   E  E   E  E   E  E   E  E   E  E   E  E  E  D
   e|------17-----17-----18-----18-----19-----19-22b24r22v/\/\/\/\--------------------|
   B|--20b----20b----21b----21b----22b----22b---------------------\/\-----------------|
   G|----------------------------------------------------------------\/\--------------|
   D|-------------------------------------------------------------------\/\-----------|
   A|----------------------------------------------------------------------\/\--------|
   E|-------------------------------------------------------------------------\/\-----|

Interlude 6:09-6:39
Guitar 1 & 2
       E E E E E E E E E E E E E E E E E E E E E E E E E E E E E E Q    2x
   e|-------------------------------------------------------------------||
   B|o-----------------------------------------------------------------o||
   G|-------------------------------------------------------------------||
   D|------------------------------4-4-----------------------------4----||
   A|o-----3-----3-----3-----3-----2-2-----3-----3-----3-----3-----2---o||
   E|--0-0-1-0-0-1-0-0-1-0-0-1-0-0-----0-0-1-0-0-1-0-0-1-0-0-1-0-0------||
   PM  ...   ...   ...   ...   ...     ...   ...   ...   ...   ...

Guitar 1
       E E E E E E E SSS E E E E E E E S Q  H.  SSS E E E E E E E       2x
   e|-------------------------------------------------------------------||
   B|o-----------------------------------------------------------------o||
   G|-------------------------------------------------------------------||
   D|--------------------------------2-4h5------------------------------||
   A|o-------------------------2-3-5--------3---333-2-3-5-3-2----------o||
   E|--0-0-0-0-0-0-0-000-2-3-5--------------------------------3-2-------||
   PM  .............................            .................

Guitar 1 & 2
       E E E E E E E SSS E E E E E E E S Q  H.  SSS E E E E E E E
   e|--------------------------------------------------------------------|
   B|--------------------------------------------------------------------|
   G|--------------------------------------------------------------------|
   D|--------------------------------2-4-5-------------------------------|
   A|--------------------------2-3-5--------3---333-2-3-5-3-2------------|
   E|--0-0-0-0-0-0-0-000-2-3-5--------------------------------3-2--------|
   PM  .............................            .................
   e|--------------------------------------------------------------------|
   B|--------------------------------------------------------------------|
   G|----------------------------------2-4-------------------------------|
   D|------------------------------4-5------2---222-0-2-4-2-0------------|
   A|---------------------------------------------------------3-2--------|
   E|--------------------------------------------------------------------|
   PM                              .            .................

       E E E E E E E SSS E E E E E E E S Q  H.  SSS E E E E E E E W    SSS E E E E E E E
   e|-------------------------------------------------------------------------------------|
   B|---------------------------------------5---------------------------------------------|
   G|---------------------------------------5---------------------------------------------|
   D|--------------------------------2-4-5--5---------------------2-----------------------|
   A|--------------------------2-3-5--------3---333-2-3-5-3-2-----2----333-2-3-5-3-2------|
   E|--0-0-0-0-0-0-0-000-2-3-5--------------------------------3-2-0------------------3-2--|
   PM  .............................            .................      .................
   e|-------------------------------------------------------------------------------------|
   B|---------------------------------------5---------------------------------------------|
   G|----------------------------------2-4--5----------------------------------2----------|
   D|------------------------------4-5------5---------------------2----555-4-5---5-4-2-4--|
   A|---------------------------------------3---333-2-3-5-3-2-----2-----------------------|
   E|---------------------------------------------------------3-2-0-----------------------|
   PM                              .            .................      .................

Verse 1 6:39-6:48
       E E E E E E E E E E E E E E E E E E E E E E E E E E E E E E E E  2x
   e|-------------------------------------------------------------------||
   B|------------------------------------------------------------------o||
   G|-------------------------------------------------------------------||
   D|-------------------------------------------------------------------||
   A|------2-----3-----4-----3-----2-2-----2-----3-----5\4---5\4---5\4-o||
   E|--0-1---0-1---0-1---0-1---0-1-----0-1---0-1---0-0-3\2-0-3\2-0-3\2--||
   PM  ...   ...   ...   ...   ...     ...   ...   ...     .     .

       E E E E E E E E
   e|------------------------------------|
   B|------------------------------------|
   G|------------------------------------|
   D|------------------------------------|
   A|--5\4---5\4---5\4-------------------|
   E|--3\2-0-3\2-0-3\2-------------------|
   PM      .     .
Verse 2 6:48-7:15
Guitar 1 & 2
       E E E E E E E E E E E E E E E E E E E E E E E E E E Q  E Q       4x
   e|-------------------------------------------------------------------||
   B|o-----------------------------------------------------------------o||
   G|-------------------------------------------------------------------||
   D|-------------------------------------------------------------------||
   A|o-------------------5/7---8\7-5/7-------------------5/7--5/7------o||
   E|--0-0-0-0-0-0-0-0-0-3/5-0-6\5-3/5-0-0-0-0-0-0-0-0-0-3/5--3/5-------||
   PM  .................     .         .................

       E E E E E E E E E E Q  E E E E E E E E E E E E E E Q  E Q        2x
   e|-------------------------------------------------------------------||
   B|o-----------------------------------------------------------------o||
   G|-------------------------------------------------------------------||
   D|--------------------4-4--5\4-4-4-------------------4----4----------||
   A|o-------------------0-2--3\2-0-2-------------------0h2--0h2-------o||
   E|--2-2-2-2-2-2-2-2-2--------------2-2-2-2-2-2-2-2-2-----------------||
   PM  .................              .................

       E E E E E E E E
   e|------------------------------------|
   B|------------------------------------|
   G|--4-4-4-4-4-4-4-4-------------------|
   D|--4-4-4-4-4-4-4-4-------------------|
   A|--2-2-2-2-2-2-2-2-------------------|
   E|------------------------------------|
   PM  ...............

Chorus 7:15-7:58
       E E E E Q  Q  E E E E a  H      E E E E Q   Q    E E E E Q  Q                3x
   e|-------------------------------------------------------------------------------||
   B|o-----------------------------------------------------------------------------o||
   G|--9-------7--9---------------------------------------------8-------------------||
   D|--9-------7--9------9---------------------10--9------------8--9----------------||
   A|o-7-------5--7--7-9---9-9h10--------------10--9------------6--9---------------o||
   E|--0-0-0-0-------------------------8-8-8-8-8---7----8-8-8-8----7----------------||
   PM  .......       ...   .           .......          .......

       E E E E Q  Q  E E E E a  H    E E E E Q   Q  E E Q  E E Q  Q  H.   Q  H.
   e|--------------------------------------------------------------------------------|
   B|--------------------------------------------------------------------------------|
   G|--9-------7--9------------------------------------------------------------------|
   D|--9-------7--9------9-------------------10--9--7-5-4--4------2--2----3--3-------|
   A|--7-------5--7--7-9---9-9h10------------10--9--9-7-6--6-7-6--2--2----3--3-------|
   E|--0-0-0-0-----------------------8-8-8-8-8---7-----------8-7--0--0----1--1-------|
   PM    .....       ...   .         .......        |2 guitars-|   .. ..   .. ..

       H.   E E E E E E E D        H.   E E E E E E E D        H.   E E E E E E E W
   e|--------------------------------------------------------------------------------|
   B|------------------------------5--------------------------------------5----------|
   G|------------------------------5----------4-------2--------7----------5-------4--|
   D|--2----------4-------5--------5----------4-------2--------7----------5-------4--|
   A|--2----------4-------5--------3----0-0-0-2-0-0-0-0--------5----------3-------2--|
   E|--0----0-0-0-2-0-0-0-3-----------------------------------------3-3-3---3-3-3----|
   PM       .....   .....               .....   .....               .....   .....

       H.   E E E E E E E W+H  Q  H.   Q  H.   H.   E E E E E E E D    Q  H.   Q  H.
   e|--------------------------------------------------------------------------------|
   B|---------------------5---------------------------------------5------------------|
   G|--9----------7-------5---------------------------------------5------------------|
   D|--9----------7-------5----2--2----3--3----2------------------5----2--2----3--3--|
   A|--7----------5-------3----2--2----3--3----2------------------3----2--2----3--3--|
   E|--0----0-0-0---0-0-0------0--0----1--1----0----0-0-0-2p0-0-0------0--0----1--1--|
   PM       .....   .....       .. ..   .. ..       .....     ...       .. ..   .. ..

Outro 7:58-8:36
       E E E E E E E E E E E E E E E E E E E E E E E E E E Q  E Q
   e|-------------------------------------------------------------------||
   B|-------------------------------------------------------------------||
   G|-------------------------------------------------------------------||
   D|--2----------------------------------------------------------------||
   A|--2-----------------5/7---8\7-5/7-------------------5/7--5/7-------||
   E|--0-0-0-0-0-0-0-0-0-3/5-0-6\5-3/5-0-0-0-0-0-0-0-0-0-3/5--3/5-------||
   PM    ...............     .         .................

       E E E E E E E E E E E E E E E E E E E E E E E E E E Q  E Q       3x
   e|-------------------------------------------------------------------||
   B|o-----------------------------------------------------------------o||
   G|-------------------------------------------------------------------||
   D|-------------------------------------------------------------------||
   A|o-------------------5/7---8\7-5/7-------------------5/7--5/7------o||
   E|--0-0-0-0-0-0-0-0-0-3/5-0-6\5-3/5-0-0-0-0-0-0-0-0-0-3/5--3/5-------||
   PM  .................     .         .................

      E E E E E E E E -
   e|------------------------------------|
   B|------------------------------------|
   G|------------------------------------|
   D|-----------------2------------------|
   A|-5\4---5\4---5\4-2------------------|
   E|-3\2-0-3\2-0-3\2-0------------------|
   PM     .     .

   /  - slide up
   \  - slide down
   b  - bend
   r  - release bend
   ~  - vibrato
   ^  - volume swell from volume off
   h  - hammer-on
   p  - pull off
   a  - acciaccatura
   T  - thirty-second note
   S  - sixteenth note
   E  - eighth note
   Q  - quarter note
   H  - half note
   W  - whole note
   D  - double note
   -  - hold note for a long time(especially ending)
   X  - pick slide
   .  - dotted note/palm-mute indicator
   /\ - tremolo bar dive
   +  - add both duration notes to get total duration
   {} - pinched harmonic

Order of Song:
1st half of the song:  Verse 1, Fill 1, Fill 2, Verse 2, Bridge, Chorus, Verse 1, Verse
2, Bridge, Chorus.
Solo 1: Guitar 2 plays its riff during the whole solo. After 1 time of Guitar 2fs riff,
Guitar 3 kicks in.
After 2 times of Guitar 2fs riff and after the first measure of Guitar 3, Guitar 1 kicks
in. Guitar 3 ends when Guitar 1 finishes its first 2 repeats, and moves on to the next
measures. When Guitar 2 finishes, it switches to distortion and plays the same riff 2
more times, and Guitar 1 plays another measure along with Guitar 2. Then, both guitars
lay the following fill and bridge.
Solo 2: Guitar 1 plays under Guitar 2 for the entire solo.
Interlude: Both guitars play the first measure. Guitar 1 plays the second measure 3
times.  Then, Guitar 2 joins and plays riff 3 & 4 with Guitar 1. Last fraction of song:
Verse 1, Verse 2, Bridge, Chorus.
Outro: Guitar 1 and 2 play the last riffs. Guitar 3 plays some of the first solo
backwards. The very last riff is played by Guitar 1 & 2 and let the last chord ring.
Guitar 3 kicks in again and plays the reversed solo again.


That's it. have fun with it. For any questions or corrections please email me at rockrocks2105@yahoo.com.
Also, POST CORRECTIONS AND COMMENTS!! If you'd like to. :P
[Updated Wednesday, July 20, 2005]
[Updated Thursday, August 11th, 2005]
[Updated Wednesday, October 5th, 2005]
[Updated Thursday, November 10th, 2005]
[Updated Wednesday, December 22nd, 2005]Merry Christmas
[Updated Friday, February 24, 2006]Fixed some duration notes
[Updated Saturday, March 25, 2006]Listened to the Chorus and fixed some percussion(palm-muted) notes
Comments