Metallica - Mama Said Chords & Tabs

 

Mama Said Chords & Tabs

Metallica Chords & Tabs

Version: 5 Type: Tab 0 ratings
1 star 2 stars 3 stars 4 stars 5 stars
comments

Mama Said Tab

   
Mama Said
Metallica

------------Electric------------

*Intro*

*Verse 1*

Mama she has taught me well
Told me when I was young
Son your life's an open book
Don't close it before it's done
The brightest flame burns quickest
Thats what I heard her say
The son's heart's owed to mother
But I must find my way....

*Chorus*

   Dm  C    Am    G
     
Eb|--------------------------------------------------------------|
Bb|----------------15--------15---------------15-----------------|
Gb|----------------14b(16)--(16)b14p12--14b(16)-(16)-(16)b14p12--|
Db|--------------------------------------------------------------|
Ab|--------------------------------------------------------------|
Eb|--------------------------------------------------------------|
   Let My   Heart Go
   Let Your Son   Grow                                      Mama
   Let My   Heart Go                                          Or

Let this heart be still

*Intro* [Wah]

   Dm   C Am                             Dm   C Am
Eb|---------------13p12p10-----10h12p10-|-------------5--------|
Bb|----------10------------10-----------|----------7-----6p5---|
Gb|-------------------------------------|--------------------7-|
Db|-------------------------------------|----------------------|
Ab|-------------------------------------|----------------------|
Eb|-------------------------------------|----------------------|
                                                                      
   
*Verse 2*  [Wah]

    Dm                C                     Am
Eb|--5----|-------------------------------------17-------------17-----------|
Bb|--5h6--|-----------------------------------------------------------------|
Gb|--7----|---------------------------------------19b(21)b19-----19b(21)b19-|
Db|-------|-----------------------------------19-------------19-------------|
Ab|-------|-----------------------------------------------------------------|
Eb|-------|-----------------------------------------------------------------|
Rebel my new last name Wild blood in my veins

                                                                      
Apron strings around my neck The mark that still

   Am                                        Dm 
Eb|-------17------------------------------------|
Bb|-------------------20-------17---17----17h18-|
Gb|---19----------19-------19-------------17h19-|
Db|---------------------------------------------|
Ab|---------------------------------------------|
Eb|---------------------------------------------|
   remains                                Left

home at an early age of what I heard was 

   Am             Dm
Eb|-17---------------|
Bb|-----15b(17)---15-|
Gb|---------------14-|
Db|------------------|
Ab|------------------|
Eb|------------------|
   wrong      I never 

asked forgiveness, But what is said is done....


*Chorus*

   Dm  C    Am    G
     
Eb|--------------------------------------------------------------|
Bb|----------------15--------15---------------15-----------------|
Gb|----------------14b(16)--(16)b14p12--14b(16)-(16)-(16)b14p12--|
Db|--------------------------------------------------------------|
Ab|--------------------------------------------------------------|
Eb|--------------------------------------------------------------|
   Let My   Heart Go
   Let Your Son   Grow                                      Mama
   Let My   Heart Go                                          Or

Let this heart be still


[ Tab from: http://www.guitartabs.cc/tabs/m/metallica/mama_said_tab_ver_5.html ]
*Bridge*
         
 1.Dm                   G
 2.Ca9                  F 
Eb|-------1-----------|-----0----------0-------|
Bb|----------3b(5)--3-|-------3----------1h3p1-|
Gb|----2--------------|---0------0-------------|
Db|-0-----------------|--------------2---------|
Ab|-------------------|-2----------3-----------|
Eb|-------------------|------------------------|
    Never        I asked of you but never I gave. But you
    Gave me your emptiness that I take to my grave
    Never        I asked of you but never I gave. But you
    Gave me your emptiness that I take to my grave

So let this heart be still.


*Verse 3* [Wah]

Mama now I'm coming home, I'm not all you wished of
                                                                   
Eb|----5-------------------|
Bb|-------3h5-6----6-------|
Gb|----------------7-------|
Db|------------------------|
Ab|------------------------|
Eb|------------------------|
   me           A mother's

love for her son,  was spoken, help

Eb|---------5---5-5---5--------|
Bb|-----------------5-------3--|
Gb|--2--2-----2-------------2--|
Db|----------------------------|
Ab|----------------------------|
Eb|----------------------------|
   me be            well I took

your love for granted,   and all the things you said
     
Eb|-------------5--------------------0--------------------------------|
Bb|------------------------5--5--6------------------------------------|
Gb|---------7--------7--7-----------------------7---------------------|
Db|-------------------------------------------------------------------|
Ab|-------------------------------------------------------------------|
Eb|-------------------------------------------------------------------|
   to me          Yeah,       I  need  your arms     to welcome me.

Eb|----------------------------|
Bb|----------------------------|
Gb|---9------------------------|
Db|----------------------------|
Ab|----------------------------|
Eb|----------------------------|
But a cold stone's all I see...

   
*Chorus* 

   Dm  C    Am    G
     
Eb|--------------------------------------------------------------|
Bb|----------------15--------15---------------15-----------------|
Gb|----------------14b(16)--(16)b14p12--14b(16)-(16)-(16)b14p12--|
Db|--------------------------------------------------------------|
Ab|--------------------------------------------------------------|
Eb|--------------------------------------------------------------|
   Let My   Heart Go
   Let Your Son   Grow                                      Mama
   Let My   Heart Go                                          Or

Let this heart be still  
     
*Chorus* [Distorted]

     D5    C5    A5   D5  (pm ..)
Eb|-------------------------------|
Bb|-------------------------------|
Gb|--7-----5----------7----7--77--|
Db|--7-----5-----7----7----7--77--|
Ab|--5-----3-----7----5----5--55--|
Eb|--------------5----------------|
   Let    My    Heart Go    Mama
   Let    Your  Son   Grow I Never 
   Let    My    Heart Go    Mama

     D5   C5   Bb5   G5   A5      D5 (hold)
Eb|----------------------------------|
Bb|----------------------------------|
Gb|--7----5----3------------------7--|
Db|--7----5----3-----5----7-------7--|
Ab|--5----3----1-----5----7-------5--|
Eb|------------------3----5----------|
     Let  this heart be   still


*Solo*

 1.Dm                   G
 2.Ca9                  F 
Eb|-------1-----------|-----0----------0-------|
Bb|----------3b(5)--3-|-------3----------1h3p1-|
Gb|----2--------------|---0------0-------------|
Db|-0-----------------|--------------2---------|
Ab|-------------------|-2----------3-----------|
Eb|-------------------|------------------------| x2


*Bridge*
         
 1.Dm                   G
 2.Ca9                  F 
Eb|-------1-----------|-----0----------0-------|
Bb|----------3b(5)--3-|-------3----------1h3p1-|
Gb|----2--------------|---0------0-------------|
Db|-0-----------------|--------------2---------|
Ab|-------------------|-2----------3-----------|
Eb|-------------------|------------------------|
    Never        I asked of you but never I gave. But you
    Gave me your emptiness that I take to my grave
    Never        I asked of you but never I gave. But you
    Gave me your emptiness that I take to my grave

So let this heart be still.
Comments