Metallica - Mama Said Chords & Tabs

 

Mama Said Chords & Tabs

Metallica Chords & Tabs

Version: 4 Type: Tab 0 ratings
1 star 2 stars 3 stars 4 stars 5 stars
comments

Mama Said Tab

   
Tabs: Robin Bownes.....with help from Metallica

TABULATURE EXPLANATION:
x  ......  muffled string
^  ...... hammer ons , pull offs
F  ...... Bend full step
FR ...... Bend full step and then release
PBR ..... Pre bend  and release
/   ..... slide up
\   ..... slide down
(12) .... `ghost' note = note which sounds from previous measure
 .
15 .... the point over the note means :"play it short - staccato"


                    <-----One bar----->
|--------------------------------------------------------------------|
| Rhythm fig.1                                   |
    Dmi                         Dsus4
Eb|-1--------1---0---1-----------3----3---1---1---1-------1-----------|
Bb|-3------------3---3-----------3----3---3---3---3-------3-----------|
Gb|-2------------2-----------2---2----2---2---2---2-------------------|
Db|-0--------------------0--------------------------------------------|
Ab|---------------------------------------------------0---------------|
Eb|-------------------------------------------------------------------|
    C                 Am              Asus2 Ami
              H
Eb|-------------------------------------0---0---x---x-----------------|
Bb|-1----1---1^3--x---1----1---1---1----0---1---x---x-----------------|
Gb|-0----0---0----x---2----2---2---2----2---2---x---x-----------------|
Db|-2----2---2----x---2----2---2---2----2---2-------------------------|
Ab|-3----3---3--------0-----------------------------------------------|
Eb|-------------------------------------------------------------------|

Eb|-1----1---1---0---1-----------3----3---1---1---1-------------------|
Bb|-3------------3---3-----------3----3---3---3---3-------------------|
Gb|-2------------2-----------2---2----2---2---2---2-------------------|
Db|-0--------------------0--------------------------------------------|
Ab|----------------------------------------------------0--------------|
Eb|-------------------------------------------------------------------|
               H                                     
Eb|--------------------0--------0---0----0---0------------------------|
Bb|--1----1---1^3--x---1--------1---1----1---3------------------------|
Gb|--0----0---0----x---2--------2---2----2---2-------0----------------|
Db|--2----2---2----x---2----------------------------------------------|
Ab|--3----3---3--------0----------------------------------------------|
Eb|-------------------------------------------------------------------|
*************************************************************************
*  Rhythm fill 1                                                        *
*               H                                                       *
*Eb|--------------------0--------0---0---------0---0-------------------|*
*Bb|--1----1---1^3--x---1--------3---3---------3---3-------------------|*
*Gb|--0----0---0----x---2--------2---2---------2---2-------------------|*
*Db|--2----2---2----x---2--------2---2---------2---2-------------------|*
*Ab|--3----3---3--------0----------------------------------------------|*
*Eb|-------------------------------------------------------------------|*
*************************************************************************

(notice!:one line  of the verse is one  line of the rhythm fig.1)
VERSE1 w/rhythm fig.1 

   Mama, she's taught me well
   told me when I was young
   Son your life's  an open book   don't
w/substitute rhythm fill 1
   close it fore it's done          The
w/resume Rhythm fig.1 <3 bars>
  brightest flame burns quickest    That's
  what I heard her say                  a
  son's heart's owed to mother,         but
  C                Am            (both open chords strike only once)
  I must find my way

 CHORUS:
  Guitar2                      *hold bend
Eb|--------------------|----------------------------------------|
Bb|--------------------|-15-------15-----------15-----15--------|
Gb|--------------------|-14F---12-14PBR-12-14FR--14FR-14-12-----|
Db|--------------------|----------------------------------------|
Ab|--------------------|----------------------------------------|
Eb|--------------------|----------------------------------------|
  | Guitar1(Rhythm.fig2)
  | Dmi  Cadd9    Ami     G
Eb|-1------3------0----|--3---3-3--3----3-3----3-3----3--3-3----|
Bb|-3------3------1----|--3---3-3--3----3-3----3-3----3--3-3----|
Gb|-2------0------2----|--0---0-0--0----0-0----0-0----0--0-0----|
Db|-0------2------2----|--0---0-0--0----0-0----0-0----0--0-0----|
Ab|--------3------0----|--2---2-2--2----2-2----2-2----2--2-2----|
Eb|--------------------|--3---3-3--3----3-3----3-3----3--3-3----|
    Let    my    heart   go___________

  Guitar2                      *hold bend
Eb|--------------------|----------------------------------------|
Bb|--------------------|-15-------15-----------15-----15--------|
Gb|--------------------|-14F---12-14PBR-12-14FR--14FR-14-12-----|
Db|--------------------|----------------------------------------|
Ab|--------------------|----------------------------------------|
Eb|--------------------|----------------------------------------|
  | Guitar1
  | Dmi  Cadd9    Ami     G
Eb|-1------3------0----|--3---3-3--3----3-3----3-3----3--3-3----|
Bb|-3------3------1----|--3---3-3--3----3-3----3-3----3--3-3----|
Gb|-2------0------2----|--0---0-0--0----0-0----0-0----0--0-0----|
Db|-0------2------2----|--0---0-0--0----0-0----0-0----0--0-0----|
Ab|--------3------0----|--2---2-2--2----2-2----2-2----2--2-2----|
Eb|--------------------|--3---3-3--3----3-3----3-3----3--3-3----|
    Let    your   son     grow_______                    Mama

  Guitar2                       *hold bend...
Eb|--------------------|----------------------------------------|
Bb|--------------------|-15-------15-----------15-15-15---------|
Gb|--------------------|-14F---12-14PBR-12-14FR--------14-12----|
Db|--------------------|----------------------------------------|
Ab|--------------------|----------------------------------------|
Eb|--------------------|----------------------------------------|
  | Guitar1
  | Dmi  Cadd9    Am      G
Eb|-1------3------0----|--3---3-3--3----3-3----3-3----3--3-3----|
Bb|-3------3------1----|--3---3-3--3----3-3----3-3----3--3-3----|
Gb|-2------0------2----|--0---0-0--0----0-0----0-0----0--0-0----|
Db|-0------2------2----|--0---0-0--0----0-0----0-0----0--0-0----|
Ab|--------3------0----|--2---2-2--2----2-2----2-2----2--2-2----|
Eb|--------------------|--3---3-3--3----3-3----3-3----3--3-3----|
    let    my     heart   go_________                     or

           
   Dmi  Cadd9  Bb  G     Ami (hold chord)
Eb|-1-----3---------3--|--0-------------------------------------|
Bb|-3-----3---3-----3--|--1-------------------------------------|
Gb|-2-----0---3-----0--|--2-------------------------------------|
Db|-0-----2---3--------|--2-------------------------------------|
Ab|-------3---1-----2--|--0-------------------------------------|
Eb|-----------------3--|----------------------------------------|
    Let  this heart be    still________        yeah still________


  Guitar1 w/rhythm fig.1
  Guitar2 w/wah effect                               P  P
Eb|----------------------------|-------------------13^12^10-----|
Bb|----------------------------|----------------10----------10--|
Gb|----------------------------|--------------------------------|
Db|----------------------------|--------------------------------|
Ab|----------------------------|--------------------------------|
Eb|----------------------------|--------------------------------|
      H  P                                           P
Eb|-10^12^10-------------------|-----------------5--------------|
Bb|----------------------------|--------------------6^5---------|
Gb|----------------------------|--------------7----------7------|
Db|----------------------------|--------------------------------|
Ab|----------------------------|--------------------------------|
Eb|----------------------------|--------------------------------|

  VERSE2
  Guitar1 w/rhythm fig.1<1 and 3/4times>
  Guitar2
       H
Eb|---5------------------------|------------------------17------17----|
Bb|---5^6----------------------|--------------------------------------|
Gb|---7------------------------|--------------------------19PBR---19PBR
Db|----------------------------|----------------------19------19------|
Ab|----------------------------|--------------------------------------|
Eb|----------------------------|--------------------------------------|
     Rebel my  new last name    wild blood in my veins___
                                                                .  .
Eb|----------------------------|-----------------------17-------------|
Bb|----------------------------|----------------------------20--17-17-|
Gb|-(19)-----------------------|---------------------19---19--19------|
Db|----------------------------|--------------------------------------|
Ab|----------------------------|--------------------------------------|
Eb|----------------------------|--------------------------------------|
   Apron string around my neck the mark that still remains           I
       H
Eb|----------------------------|--------------------------17---------|
Bb|--17^18---------------------|-------------------------------15FB--|
Gb|--17^19---------------------|-------------------------------------|
Db|----------------------------|-------------------------------------|
Ab|----------------------------|-------------------------------------|
Eb|----------------------------|-------------------------------------|
    left home at an early age  of what I   heard was wrong______
                       
     * use wah pedal up and down Gtr1
Eb|----------------------------|--0------------------0---------------|
Bb|-15-------------------------|--1------------------1---------------|
Gb|-14-------------------------|--0------------------2---------------|
Db|----------------------------|--2------------------2---------------|
Ab|----------------------------|--3------------------0---------------|
Eb|----------------------------|-------------------------------------|
    never asked forgivness  but   what I said is     done________

 CHORUS:
  Guitar2   Rhythm.fig2A
                                           * hold bend
Eb|--------------------|----------------------------------------|
Bb|--------------------|-15-------15-----------15-----15--------|
Gb|--------------------|-14F---12-14PBR-12-14FR--14FR-14-12-----|
Db|--------------------|----------------------------------------|
Ab|--------------------|----------------------------------------|
Eb|--------------------|----------------------------------------|
  | Guitar1(Rhythm.fig2)
  | Dmi  Cadd9    Ami     G
Eb|-1------3------0----|--3---3-3--3----3-3----3-3----3--3-3----|
Bb|-3------3------1----|--3---3-3--3----3-3----3-3----3--3-3----|
Gb|-2------0------2----|--0---0-0--0----0-0----0-0----0--0-0----|
Db|-0------2------2----|--0---0-0--0----0-0----0-0----0--0-0----|
Ab|--------3------0----|--2---2-2--2----2-2----2-2----2--2-2----|
Eb|--------------------|--3---3-3--3----3-3----3-3----3--3-3----|
    Let    my    heart   go___________

  Guitar2                                  * hold bend
Eb|--------------------|----------------------------------------|
Bb|--------------------|-15-------15-----------15-15-15---------|
Gb|--------------------|-14F---12-14PBR-12-14FR--------14--12---|
Db|--------------------|----------------------------------------|
Ab|--------------------|----------------------------------------|
Eb|--------------------|----------------------------------------|
  | Guitar1
  | Dmi  Cadd9    Ami     G
Eb|-1------3------0----|--3---3-3--3----3-3----3-3----3--3-3----|
Bb|-3------3------1----|--3---3-3--3----3-3----3-3----3--3-3----|
Gb|-2------0------2----|--0---0-0--0----0-0----0-0----0--0-0----|
Db|-0------2------2----|--0---0-0--0----0-0----0-0----0--0-0----|
Ab|--------3------0----|--2---2-2--2----2-2----2-2----2--2-2----|
Eb|--------------------|--3---3-3--3----3-3----3-3----3--3-3----|
    Let    your   son     grow_______                    Mama
  Guitar2                                          
                                                
Eb|--------------------|----------------------------------------|
Bb|--------------------|-15----15------15-----------15----------|
Gb|--------------------|-14F---14F--12----14PBR--12----14PBR-12-|
Db|--------------------|----------------------------------------|
Ab|--------------------|----------------------------------------|
Eb|--------------------|----------------------------------------|
  | Guitar1
  | Dmi  Cadd9    Am      G
Eb|-1------3------0----|--3---3-3--3----3-3----3-3----3--3-3----|
Bb|-3------3------1----|--3---3-3--3----3-3----3-3----3--3-3----|
Gb|-2------0------2----|--0---0-0--0----0-0----0-0----0--0-0----|
Db|-0------2------2----|--0---0-0--0----0-0----0-0----0--0-0----|
Ab|--------3------0----|--2---2-2--2----2-2----2-2----2--2-2----|
Eb|--------------------|--3---3-3--3----3-3----3-3----3--3-3----|
    let    my     heart   go_________                     or

           
   Dmi  Cadd9  Bb  G     Ami            Asus2    Asus4
Eb|-1-----3---------3--|--0------0-0----0-0---0---0-0-0----0----|
Bb|-3-----3---3-----3--|--1------1-1----0-0---0---3-3-3----3----|
Gb|-2-----0---3-----0--|--2------2-2----2-2---2---2-2-2----2----|
Db|-0-----2---3--------|--2------2-2----2-2---2---2-2-2----2----|
Ab|-------3---1-----2--|--0------0-0----0-0---0---0-0-0----0----|
Eb|-----------------3--|----------------------------------------|
    Let  this heart be    still________

   Bridge
   Guitar1 
    Dmi       G                  Cadd9       F
Eb|-1--1-1-1--3---3-3---3--3-3-|-3---3-3-3---1-----1-1---1-1-1-------|
Bb|*3--3-3-3--3---3-3---3--3-3-|-3---3-3-3---1-----1-1---1-1-1-------|
Gb|-2--2-2-2--0---0-0---0--0-0-|-0---0-0-0---2-----2-2---2-2-2-------|
Db|-0--0-0-0--0---0-0---0--0-0-|-2---2-2-2---3-----3-3---3-3-3-------|
Ab|*----------2---2-2---2--2-2-|-3---3-3-3---3-----3-3---3-3-3-------|
Eb|-----------3---3-3---3--3-3-|-------------1-----1-1---1-1-1-------|
  |Never I   ask  of you   but   never I      gave           But you
  |Guitar2                 H
Eb|------1------------0--------|-------0-----------------------------|
Bb|*-------3F-3---------3------|---------1^3-------------------------|
Gb|----2------------0-------0--|-------------------------------------|
Db|-0--------------------------|-----2-------------------------------|
Ab|*--------------2------------|-3-----------------------------------|
Eb|----------------------------|-------------1-----------------------|
[ Tab from: http://www.guitartabs.cc/tabs/m/metallica/mama_said_tab_ver_4.html ]
                                                    
    Dmi       G                  Cadd9        F
Eb|-1--1-1-1--3---3-3---3--3-3-|-3---3-3-3----1------1-1-1-1-1-------|
Bb|-3--3-3-3--3---3-3---3--3-3-|-3---3-3-3----1------1-1-1-1-1------*|
Gb|-2--2-2-2--0---0-0---0--0-0-|-0---0-0-0----2------2-2-2-2-2-------|
Db|-0--0-0-0--0---0-0---0--0-0-|-2---2-2-2----3------3-3-3-3-3-------|
Ab|-----------2---2-2---2--2-2-|-3---3-3-3----3------3-3-3-3-3------*|
Eb|-----------3---3-3---3--3-3-|--------------1------1-1-1-1-1-------|
  |gave me your emptiness I now take to my    grave         *So
  |                                 *sing this word only for 2nd time
  |                                       H        
Eb|------1------------0--------|-------0-----------------------------|
Bb|--------3F-3---------3------|---------1^3------------------------*|
Gb|----2------------0-------0--|-------------------------------------|
Db|-0--------------------------|-----2-------------------------------|
Ab|---------------2------------|-3----------------------------------*|
Eb|----------------------------|-------------1-----------------------|

    Dmi  Cadd9  Bb               Ami      Asus4
Eb|-1------3------------3------|-0---------0------0---0---0---0---0--|
Bb|-3------3------3-----3------|-1---------3------3---3---3---3---3--|
Gb|-2------0------3-----0------|-2---------2------2---2---2---2---2--|
Db|-0------2------3-----0------|-2---------2------2---2---2---2---2--|
Ab|--------3------1-----2------|-0---------0------0---0---0---0---0--|
Eb|---------------------3------|-------------------------------------|
    let    this   heart be       still

  VERSE 3
  Guitar 1 w/Rhytm.fig1 <1 and 3/4 time>
  Guitar 2 
Eb|----------------------------|--------------------------5----------|
Bb|----------------------------|----------------------------3/5--6---|
Gb|----------------------------|-------------------------------------|
Db|----------------------------|-------------------------------------|
Ab|----------------------------|-------------------------------------|
Eb|----------------------------|-------------------------------------|
  Mama now I'm coming home I'm not all you wished of me____        A

Eb|----------------------------|------------------------5----5-5-0-5-|
Bb|-6--------------------------|-------------------------------------|
Gb|-7--------------------------|-----------------2--2-----2----------|
Db|----------------------------|-------------------------------------|
Ab|----------------------------|-------------------------------------|
Eb|----------------------------|-------------------------------------|
   mother's love for her son unspoken help me be         Yeah I

Eb|----------------------------|---------------------------5---------|
Bb|-3--------------------------|---------------------------------5-5-|
Gb|-2--------------------------|-------------------------7---7-7-----|
Db|----------------------------|-------------------------------------|
Ab|----------------------------|-------------------------------------|
Eb|----------------------------|-------------------------------------|
 took your love for granted and all the things you said to me yeah I
                      
                   Gtr.1 C                Ami
Eb|----0-----------------------|------0----------------0-------------|
Bb|--6-------------------------|------1----------------1-------------|
Gb|----------7-----------------|------0----------------2-------------|
Db|----------------------------|------2----------------2-------------|
Ab|----------------------------|------3----------------0-------------|
Eb|----------------------------|------0------------------------------|
  need your arms to welcome me  but a cold stone's all I see

                                Gtr1 w/Rhythm fig.2  
                                Gtr2 w/Rhythm fig.2A
                                  G
Eb|-(0)------------------------|-------------------------------------|
Bb|-(1)------------------------|-------------------------------------|
Gb|-(2)------------------------|-------------------------------------|
Db|-(2)------------------------|-------------------------------------|
Ab|-(0)------------------------|-------------------------------------|
Eb|----------------------------|-------------------------------------|
    Let      my  heart           go
     Dmi         Cadd9    Ami    G
Eb|----------------------------|-------------------------------------|
Bb|----------------------------|-------------------------------------|
Gb|----------------------------|-------------------------------------|
Db|----------------------------|-------------------------------------|
Ab|----------------------------|-------------------------------------|
Eb|----------------------------|-------------------------------------|
    Let          your     son   grow                         Mama
     Dmi     Cadd9      Ami       G
Eb|----------------------------|-------------------------------------|
Bb|----------------------------|-------------------------------------|
Gb|----------------------------|-------------------------------------|
Db|----------------------------|-------------------------------------|
Ab|----------------------------|-------------------------------------|
Eb|----------------------------|-------------------------------------|
    let      my        heart     go                            or
    Dmi   Cadd9   Bb      G       Ami              Asus2   Asus4
Eb|----------------------------|--0--------0-0---0-0---0----0-0-0--0-|
Bb|----------------------------|--1--------1-1---1-0---0----3-3-3--3-|
Gb|----------------------------|--2--------2-2---2-2---2----2-2-2--2-|
Db|----------------------------|--2--------2-2---2-2---2----2-2-2--2-|
Ab|----------------------------|--0--------0-0---0-0---0----0-0-0--0-|
Eb|----------------------------|-------------------------------------|
  | let   this   heart    be     still
  |Gtr2                                let ring
Eb|----------------------------|-------------------------------------|
Bb|----------------------------|-------------------------------------|
Gb|(12)-(12)\------------------|-------------------------------------|
Db|----------------------------|-----------2-----2-2-------2-2---2-0-|
Ab|----------------------------|--------0------0-------0-------0-----|
Eb|----------------------------|-------------------------------------|

   Gtr1
    Dmi         Cadd9   Ami      Dmi
Eb|--1----------3--------0-----|--1-----1---1-1---1-----1-1-1-1-1-1--|
Bb|--3----------3--------1-----|--3-----3---3-3---3-----3-3-3-3-3-3--|
Gb|--2----------0--------2-----|--2-----2---2-2---2-----2-2-2-2-2-2--|
Db|--0----------2--------2-----|--0-----0---0-0---0-----0-0-0-0-0-0--|
Ab|-------------3--------0-----|-------------------------------------|
Eb|----------------------------|-------------------------------------|
  | Let         my      heart    go                             Mama
  |Gtr2                                               *hold bend..
Eb|----------------------------|----------1---------------1----------|
Bb|----------------------------|----------------------3FR---3--------|
Gb|----------------------------|------2------------------------------|
Db|----------------------------|--0----------------------------------|
Ab|----------------------------|-------------------------------------|
Eb|----------------------------|-------------------------------------|
  |
  | Gtr3 
Eb|----------------------------|-------------------------------------|
Bb|----------------------------|-------------------------------------|
Gb|--7---------5---------------|--7----------------------------------|
Db|--7---------5---------7-----|--7----------------------------------|
Ab|--5---------3---------7-----|--5----------------------------------|
Eb|----------------------5-----|-------------------------------------|

   Gtr1
   Dmi        Cadd9    Ami       Dmi
Eb|-1----------3--------0------|-1-----1---1-1---1----1-1-1-1-1-1----|
Bb|-3----------3--------1------|-3-----3---3-3---3----3-3-3-3-3-3----|
Gb|-2----------0--------2------|-2-----2---2-2---2----2-2-2-2-2-2----|
Db|-0----------2--------2------|-0-----0---0-0---0----0-0-0-0-0-0----|
Ab|------------3--------0------|-------------------------------------|
Eb|----------------------------|-------------------------------------|
  | let        my     heart                                mm ya never
  |Gtr2                                           H          H
Eb|----------------------------|-----------1-----0^1----1-1-0^1------|
Bb|----------------------------|-------2--------------2-3-3-----3----|
Gb|----------------------------|-------------------------------------|
Db|----------------------------|-0-----------------------------------|
Ab|----------------------------|-------------------------------------|
Eb|----------------------------|-------------------------------------|
  |
  |Gtr3
Eb|----------------------------|-------------------------------------|
Bb|----------------------------|-------------------------------------|
Gb|--7---------5---------------|--7----------------------------------|
Db|--7---------5---------7-----|--7----------------------------------|
Ab|--5---------3---------7-----|--5----------------------------------|
Eb|----------------------5-----|-------------------------------------|

    Gtr1
    Dmi      Cadd9       Ami     Dmi
Eb|-1----------3---------0-----|-1-----1---1-1---1----1-1-1-1-1-1----|
Bb|-3----------3---------1-----|-3-----3---3-3---3----3-3-3-3-3-3----|
Gb|-2----------0---------2-----|-2-----2---2-2---2----2-2-2-2-2-2----|
Db|-0----------2---------2-----|-0-----0---0-0---0----0-0-0-0-0-0----|
Ab|------------3---------0-----|-------------------------------------|
Eb|----------------------------|-------------------------------------|
  | let        my        heart   go                             So
  |Gtr2
Eb|----------------------------|-----------1-----3------1------------|
Bb|----------------------------|-------3-----3------------3---3FR----|
Gb|----------------------------|---------2-----2------2-----2--------|
Db|----------------------------|-------------------------------------|
Ab|----------------------------|-0-----------------------------------|
Eb|----------------------------|-------------------------------------|
  |
  |Gtr3
Eb|----------------------------|-------------------------------------|
Bb|----------------------------|-------------------------------------|
Gb|--7---------5---------------|--7----------------------------------|
Db|--7---------5---------7-----|--7----------------------------------|
Ab|--5---------3---------7-----|--5----------------------------------|
Eb|----------------------5-----|-------------------------------------|

   Gtr1
   Dmi   Cadd9    Bb     G       Ami
Eb|-1------3-------------3-----|-0---0---0-0---0---0-0-0-0-0-0-------|
Bb|-3------3------3------3-----|-1---1---1-1---1---1-1-1-1-1-1-------|
Gb|-2------0------3------0-----|-2---2---2-2---2---2-2-2-2-2-2-------|
Db|-0------2------3------0-----|-2---2---2-2---2---2-2-2-2-2-2-------|
Ab|--------3------1------2-----|-0---0---0-0---0---0-0-0-0-0-0-------|
Eb|----------------------3-----|-------------------------------------|
  | let    this   heart  be      still         woh
  |Gtr2
Eb|----------------------------|-------------------------------------|
Bb|----------------------------|-------------------------------------|
Gb|----------------------------|-------------------------------------|
Db|----------------------------|---------2-2---2-2---2-2---2-2-0-----|
Ab|----------------------------|-------0-----0-----0-----0-----------|
Eb|----------------------------|-------------------------------------|
  |
  |Gtr3
Eb|----------------------------|-------------------------------------|
Bb|----------------------------|-------------------------------------|
Gb|-7------5------3------------|-------------------------------------|
Db|-7------5------3------5-----|-7-----------------------------------|
Ab|-5------3------1------5-----|-7-----------------------------------|
Eb|----------------------3-----|-5-----------------------------------|

   Gtr1 w/rhythm fig.3
   Gtr  w/rhythm fig.3A
   Gtr3               
Eb|----------------------------|-------------------------------------|
Bb|----------------------------|-------------------------------------|
Gb|-7--------------------------|-------------------------------------|
Db|-7--------------------------|-------------------------------------|
Ab|-5--------------------------|-------------------------------------|
Eb|----------------------------|-------------------------------------|

Eb|----------------------------|-------------------------------------|
Bb|----------------------------|-------------------------------------|
Gb|----------------------------|-------------------------------------|
Db|----------------------------|-------------------------------------|
Ab|----------------------------|-------------------------------------|
Eb|----------------------------|-------------------------------------|

   Bridge
   Guitar1 
    Dmi       G                  Cadd9       F
Eb|-1--1-1-1--3---3-3---3--3-3-|-3---3-3-3---1-----1-1---1-1-1-------|
Bb|-3--3-3-3--3---3-3---3--3-3-|-3---3-3-3---1-----1-1---1-1-1-------|
Gb|-2--2-2-2--0---0-0---0--0-0-|-0---0-0-0---2-----2-2---2-2-2-------|
Db|-0--0-0-0--0---0-0---0--0-0-|-2---2-2-2---3-----3-3---3-3-3-------|
Ab|-----------2---2-2---2--2-2-|-3---3-3-3---3-----3-3---3-3-3-------|
Eb|-----------3---3-3---3--3-3-|-------------1-----1-1---1-1-1-------|
  |Never I   ask  of you   but   never I      gave           But you
  |Guitar2                 H
Eb|------1------------0--------|-------0-----------------------------|
Bb|--------3F-3---------3------|---------1^3-------------------------|
Gb|----2------------0-------0--|-------------------------------------|
Db|-0--------------------------|-----2-------------------------------|
Ab|---------------2------------|-3-----------------------------------|
Eb|----------------------------|-------------1-----------------------|

                                                    
    Dmi       G                  Cadd9        F
Eb|-1--1-1-1--3---3-3---3--3-3-|-3---3-3-3----1------1-1-1-1-1-------|
Bb|-3--3-3-3--3---3-3---3--3-3-|-3---3-3-3----1------1-1-1-1-1-------|
Gb|-2--2-2-2--0---0-0---0--0-0-|-0---0-0-0----2------2-2-2-2-2-------|
Db|-0--0-0-0--0---0-0---0--0-0-|-2---2-2-2----3------3-3-3-3-3-------|
Ab|-----------2---2-2---2--2-2-|-3---3-3-3----3------3-3-3-3-3-------|
Eb|-----------3---3-3---3--3-3-|--------------1------1-1-1-1-1-------|
  |gave me your emptiness I now take to my    grave          So
  |
  |                                       H        
Eb|------1------------0--------|-------0-----------------------------|
Bb|--------3F-3---------3------|---------1^3-------------------------|
Gb|----2------------0-------0--|-------------------------------------|
Db|-0--------------------------|-----2-------------------------------|
Ab|---------------2------------|-3-----------------------------------|
Eb|----------------------------|-------------1-----------------------|

   Gtr1
    Dmi  Cadd9  Bb    G          Ami 
Eb|-1-----3-----------3--------|-0----------------------------------||
Bb|-3-----3-----3-----3--------|-1----------------------------------||
Gb|-2-----0-----3-----0--------|-2----------------------------------||
Db|-0-----2-----3-----0--------|-2----------------------------------||
Ab|-------3-----1-----2--------|-0----------------------------------||
Eb|-------------------3--------|------------------------------------||
Comments