Metallica - Mama Said Chords & Tabs

 

Mama Said Chords & Tabs

Metallica Chords & Tabs

Version: 5 Type: Bass Tab 0 ratings
1 star 2 stars 3 stars 4 stars 5 stars
comments

Mama Said Bass Tab

   
--------------------------------------------------------------------------
			     Mamma Said - Metallica
--------------------------------------------------------------------------

Tabbed By : Nick Prosper
Location: Corner Brook, Newfoundland Canada
E-mail: nick_prosper@nf.sympatico.ca or nick.prosper@gmail.com
MSN: newfie_bassist@hotmail.com
AGE: 21

Tabbed: December 26, 2004

Equipment: Schecter Diamond Series 5 String Elite Bass w/EMG-HZ Active Pickups.
1 X 15" Peavey Cab, 2 X 10" Peavey Cab, Peavey Classic series 120/120 Power Amp.
Trace Elliot GP12-SMX 12 Band Graphic EQ Pre-amplification System.

This is the Mamma Said bass tab which is off Load album. I play this song with a
pick as I do with every MetallicA song. This tab may not be exactly how it is
played from a book you may buy for Metallica bass tabs. But this is how I play
it. I have a progressive style so have fun!

If you would like to have the sound files which I recorded for this song which is
only bass, please feel free to email me.

If You have any suggestions/changes or coments, please feel free email them on as
well.

Tuning : Standard


This is done in standard tuning, although this album is dropped tuning I decided to
do it in standard so you dont have to mess with tuning down to get the right notes.
Peace out!

G|--------------------------------------------------|
D|--------------------------------------------------|
A|-------------------4-2----------------------------|
E|-2--2-22--2-2-0-2------4-2--2--0--2-2--2--0--2--4-|

G|---------------------------------------------|
D|---------------------------------------------|
A|-4-2----------------------------4-2----------|
E|-----4-2--2--0--2-2--2--0--2--4-----5--2--4\-|

G|--------------------------------------------------|
D|--------------------------------------------------|
A|-------------------4-2----------------------------|
E|-2--2-22--2-2-0-2------4-2--2--0--2-2--2--0--2--4-|

G|------------------------------------------------------|
D|------------------------------------------------------|
A|-4-2----------------------------4-2-------------------|
E|-----4-2--2--0--2-2--2--0--2--4-----5--2--4-4-44-4-44-|

G|-----------------------------------------------------------------------|
D|-----------------------------------------------------------------------|
A|-4-4-44---------2-2-2h4----5h7-7-7--4-4-44---------2-2-2h4-----5h7-7-7-|
E|-------2-2-22-2---------0-0----------------2-2-22-2---------0-0--------|

G|-----------------------------------------------------------------------|
D|-----------------------------------------------------------------------|
A|-4-4-44---------2-2-2h4----5h7-7-7--4-4-44----------2-2-2h4----5h7-7-7-|
E|-------2-2-22-2---------0-0----------------2-2-22-2---------0-0-------|
[ Tab from: http://www.guitartabs.cc/tabs/m/metallica/mama_said_btab_ver_5.html ]
G|----------------------------------------------------------------|
D|--------------------------------------------------------4h6-----|
A|--4-2-----------------4h6--4-4-44-4-4-4--2-22-2-----4h6-----4h6-|
E|------5--2--4-4-4-4-4---------------------------4-4-------------|

G|-----------------------------------------------------------------------|
D|---------------------------------------------------------------4h6-----|
A|-4-4-44-4-4-4--2-22-2---------4h6--4-4-44-4-4-4--2-22-2-----4h6---4h6--|
E|---------------------4-44-4-4---------------------------4-4------------|

                   Let my heart go..
G|-----------------------------------------------------------------------|
D|-----------------------------------------------------------------------|
A|-4-4-44-4h6p4-2---REST-------------------4-2---------------------------|
E|----------------4------2--2-22--2-2-0-2-----4-2--2--0--2-2--2--0--2--4-|

G|--------------------------------------------------|
D|--------------------------------------------------|
A|-------------------4-2----------------------------|
E|-2--2-22--2-2-0-2------4-2--2--0--2-2--2--0--2--4-|

G|------------------------------------------------------|
D|------------------------------------------------------|
A|-4-2----------------------------4-2-------------------|
E|-----4-2--2--0--2-2--2--0--2--4-----5--2--4-44-4-44-44|

G|-----------------------------------------------------------------|
D|-----------5/11-11-11-11-11-11-----------------------------------|
A|-4-2---4-4---------------------12/4-4-2---4-4-5/11-11-11-11-11\4-|
E|-----4----------------------------------4------------------------|

G|-------------------|
D|-------------------|
A|-4-2---------------|
E|-----5-2-4-4-4-4-4-|

G|-----------------------------------------------------------------------|
D|-----------------------------------------------------------------------|
A|-4-4-44----------2-2-2h4-----5h7-7-7--4-4-44---------2-2-2h4---5h7-7-7-|
E|--------2-2-22-2---------0-0-----------------2-2-22-2-------0-0--------|

G|-----------------------------------------------------------------------|
D|-----------------------------------------------------------------------|
A|-4-4-44----------2-2-2h4-----5h7-7-7--4-4-44---------2-2-2h4---5h7-7-7-|
E|--------2-2-22-2---------0-0-----------------2-2-22-2-------0-0--------|

G|-----------------------------------------------------------------------|
D|-----------------------------------------------------------------------|
A|-4-4-44----------2-2-2h4-----5h7-7-7--4-4-44---------2-2-2h4---5h7-7-7-|
E|--------2-2-22-2---------0-0-----------------2-2-22-2-------0-0--------|


G|---------------|
D|---------------|
A|-4--2----------|
E|-------5--2--4-|


| /  slide up
| \  slide down
| h  hammer-on
| p  pull-off
| ~  vibrato
| +  harmonic
| x  Mute note
==========================================================================
Comments