Metallica - Mama Said Chords & Tabs

 

Mama Said Chords & Tabs

Metallica Chords & Tabs

Version: 2 Type: Bass Tab 0 ratings
1 star 2 stars 3 stars 4 stars 5 stars
comments

Mama Said Bass Tab

Mama Said: Metallica     
          done by Slavko Markovic (e-mail:sepulsax@yahoo.com)
Verse:
Gb|---------------------------------------------------|
Db|--0--0-0-0--0-0-0--0-0-0---------------------------|
Ab|--------------------------3-3-3--3--0--0-0--0-0-0--|
Eb|---------------------------------------------------|


Chorus:
Gb|-----------------------------------------|
Db|--0--------------------------------------| x3
Ab|-----3--0--------------------------------|
Eb|-----------3--3-3--3-3-3--3--3-3--3-3-3--|

[ Tab from: http://www.guitartabs.cc/tabs/m/metallica/mama_said_btab_ver_2.html ]
Gb|-----------------|
Db|--0--------------|
Ab|-----3--1-----0--|
Eb|-----------3-----|
So let this heart be still
                      
Gb|-------------------------------------------------------|
Db|--0--0-0-----------------------------------------------|
Ab|---------------------------3--3-3-3-3------------------| x4
Eb|----------3--3-3--3-3-3-3-------------1--1-1--1-1-1-1--|
never I ask of you...

Gb|-----------------|
Db|--0--------------|
Ab|-----3--1-----0--|
Eb|-----------3-----|
So let this heart be still

 Sorry if I done something wrong.

P. S. Zahvaljujem Marku(POSEBNO), Babcu, Zeletu, Maretu, Djuri, Stankovicu, Lukicu 
i posebno  Siceru,na podrsci koju su mi dali tokom pravljenja
ove tablature.


Comments