Metallica - Low Mans Lyric Chords & Tabs

 

Low Mans Lyric Chords & Tabs

Metallica Chords & Tabs

Version: 5 Type: Tab 0 ratings
1 star 2 stars 3 stars 4 stars 5 stars
comments

Low Mans Lyric Tab

   
Band- Metallica
Song- Low Mans Lyric

tr I (Eb Ab Db Gb Bb Eb) - 'James Hetfield - Rhythm clean electric w/chorus'
Gtr II (Eb Ab Db Gb Bb Eb) - 'Accordian arr. for Gtr.'
Gtr III (Eb Ab Db Gb Bb Eb) - 'Kirk Hammett - Rythm steel string acoustic'
Gtr IV (Eb Ab Db Gb Bb Eb) - 'Kirk hammett - Lead /Rhythm w/light dist'
Gtr V (Eb Ab Db Gb Bb Eb) - 'James Hetfield - Rhythm w/dist'

Intro
  Q=132
 3/4
  Gtr I
  W        W         H    +E  E   E Q.   Q    H    E E
|--------|--------||------------|-0---------|-----------|
|--------|--------||------------|---2-------|-----------|
|--------|--------||------------|--------2--|-----------|
|--------|--------||----------2-|-----------|-----------|
|--------|--------||-0----(0)---|-----------|--------2--|
|--------|--------||------------|-----------|-3----3----|
                   |-Rhy Fig 1

  E Q.   Q    H    E E   E Q.   Q    Q  Q  Q    Q  Q  Q
|-0---------|----------|-0---------|----0-----|----0-----|
|---3-------|----------|---3-------|-------0--|-------0--|
|--------0--|-2------2-|--------2--|----------|----------|
|-----------|-0----0---|-----------|----------|----------|
|-----------|----------|-----------|----------|----------|
|-----------|----------|-----------|-0--------|-3--------|
                                           end Rhy Fig 1-|

w/Rhy Fig 1
  Gtr II
   H     E  E    Q    Q   Q    H    E E    Q    Q  Q
|--------7--9-|-10----9------|------7-9-|-10----9--7--|
|-10----------|----------10--|-8--------|-------------|
|-------------|--------------|----------|-------------|
|-------------|--------------|----------|-------------|
|-------------|--------------|----------|-------------|
|-------------|--------------|----------|-------------|
|-Riff A


   H    E E    Q    Q   Q    H     E E    Q  Q   Q
|-------7-9-|-10----9--10--|-7-----7-9-|-10--9------||
|-10--------|--------------|-----------|--------10--||
|-----------|--------------|-----------|------------||
|-----------|--------------|-----------|------------||
|-----------|--------------|-----------|------------||
|-----------|--------------|-----------|------------||
                                         end Riff A-|


   Verse 1
Rhy Fig 1 + Riff A x2

w/Riff A x2
     H    E E    E E E E  E E   Q  Q  E E    H     E E
||------------|---------------|-------3s5-|--3-------3-|
||o-----------|--3p2--------2-|-------3s5-|--3---------|
||----------2-|------2----2---|-----------|--------0---|
||--------2---|--------2------|-----------|------------|
||o--0--------|---------------|----2------|------------|
||------------|---------------|-3---------|------------|
 |-Rhy Fig 1A


   H    E E    E E Q   Q    Q  Q.    E    Q  Q   E E
|-----------|--3p2--------|----0-----0-|-----3---3-3--||
|-----------|------3------|----0-----0-|-----3---3-3-o||
|-----------|----------2--|----1-------|-----0---0-0--||
|--0----0-0-|-------------|----2-------|-----0--------||
|-----------|-------------|------------|-------------o||
|-----------|-------------|-0----------|--3-----------||
                                       end Rhy Fig 1A-|


   Chorus
    Gtr I
 |-Rhy Fig 2
    Am                    Em
    H.         Q   H      Q   E E Q     Q   E E Q
    |          |   |      |   | | |     |   | | |
    /          /   /      /   / / /     /   / / /

    Gtr III
    H.        +H.         H.           +H.
||--0-------|-(0)-------|-0----------|-(0)----------|
||o-1-------|-(1)-------|-0----------|-(0)----------|
||--2-------|-(2)-------|-0----------|-(0)----------|
||--2-------|-(2)-------|-2----------|-(2)----------|
||o-0-------|-(0)-------|-2----------|-(2)----------|
||----------|-----------|-0----------|-(0)----------|


  Am                      Em                E G A C
  H.         Q   E E Q    Q   E E Q     Q   E E E E
  |          |   | | |    |   | | |     |   | | | |
  /          /   / / /    /   / / /     /   o o o o

  H.        +H.           H.           +H.
|-0-------|-(0)---------|-0----------|-(0)----------|
|-1-------|-(1)---------|-0----------|-(0)----------|
|-2-------|-(2)---------|-0----------|-(0)----------|
|-2-------|-(2)---------|-2----------|-(2)----------|
|-0-------|-(0)---------|-2----------|-(2)----------|
|---------|-------------|-0----------|-(0)----------|


  A   Am                   G
  Q   Q  Q     Q   Q  Q    Q   E E Q     Q   E E Q
  |   |  |     |   |  |    |   | | |     |   | | |
  o   /  /     /   /  /    /   / / /     /   / / /

  H.          +H.          H.           +H.
|-0---------|-(0)--------|-3----------|-(3)---------|
|-1---------|-(1)--------|-3----------|-(3)---------|
|-2---------|-(2)--------|-0----------|-(0)---------|
|-2---------|-(2)--------|-0----------|-(0)---------|
|-0---------|-(0)--------|-2----------|-(2)---------|
|-----------|------------|-3----------|-(3)---------|


                                       end Rhy Fig 2-|
  Cadd9                      B5
  Q   E E Q     Q   E E Q    Q   Q  Q     Q   Q  Q
  |   | | |     |   | | |    |   |  |     |   |  |
  /   / / /     /   / / /    /   /  /     /   /  /

  H.           +H.           H.          +H.
|-3----------|-(3)---------|-----------|-------------||
|-3----------|-(3)---------|-----------|------------o||
|-0----------|-(0)---------|-4---------|-(4)---------||
|-2----------|-(2)---------|-4---------|-(4)---------||
|-3----------|-(3)---------|-2---------|-(2)--------o||
|------------|-------------|-----------|-------------||


Rhy Fig 2 (1st 14 bars)

|-Rhy Fig 3
  B5                                  A B C A
  Gtrs I, III
  Q  Q  Q    Q  Q  Q    Q  Q  Q    Q  E E E E
  |  |  |    |  |  |    |  |  |    |  | | | |
  /  /  /    /  /  /    /  /  /    /  o o o o
|----------|----------|----------|------------|


  Gtr I
  B  B5                             end Rhy Fig 3-|
  Q  Q  Q    Q  Q  Q     Q   Q   Q     Q   Q   Q
  |  |  |    |  |  |     |   |   |     |   |   |
  o  /  /    /  /  /     /   /   /     /   /   /

  Gtr III
  Q  Q  Q    Q  Q  Q     Q   Q   Q     Q   Q   Q
|----------|----------|-------------|-------------||
|----------|----------|-------------|-------------||
|-4--4--4S=|=8--8--8S=|=11--11--11--|-12--12--12--||
|----------|----------|-------------|-------------||
|-2--2--2S=|=6--6--6S=|==9---9---9--|-10--10--10--||
|----------|----------|-------------|-------------||
|-Riff B                               end Riff B-|

   Verse 2
w/Rhy Fig 1 + Riff A
    Gtr III
|-Rhy Fig 1B
    A                            G
     Q  Q  Q      Q   E E  Q     Q  Q  Q      Q  E E Q
     |  |  |      |   | |  |     |  |  |      |  | | |
     /  /  /      /   / /  /     /  /  /      /  / / /
|-------------|---------------|-----------|-------------|


                                           end Rhy Fig 1B-|
  D                          E             G
   Q  Q  Q      Q   Q   Q    H.             H.
   |  |  |      |   |   |    |              |
   /  /  /      /   /   /    /              /
|------------|-------------|-------------|---------------|


Rhy Fig 1 + 1B + Riff A

   Chorus
    $
w/Rhy Fig 2
    Gtr III
    Q   Q  Q     H.         Q  Q   Q    H.
||------------|--0--------|-----------|-0-----------|
||o-----------|--1--------|-----------|-0-----------|
||---------2--|-----------|--------0--|-------------|
||------2-----|-----------|----2------|-------------|
||o-0---------|-----------|-0---------|-------------|
||------------|-----------|-----------|-------------|
||-Rhy Fig 2A
|
|   Gtr IV on D.S. only
|   H.          +H.         W           W
||------------|-----------|-----------|-------------|
||o-----------|-----------|-----------|-------------|
||--2---------|-(2)-------|-----------|-------------|
||--2---------|-(2)-------|-----------|-------------|
||o-0---------|-(0)-------|-----------|-------------|
||------------|-----------|-----------|-------------|



  Q   Q  Q    H.           Q  Q   Q    Q  E E E E
|-----------|-0----------|-----------|-0----------|
|-----------|-1----------|-----------|-0----------|
|--------2--|------------|--------0--|-0----------|
|-----2-----|------------|----2------|------------|
|-0---------|------------|-0---------|--------0-3-|
|-----------|------------|-----------|----0-3-----|



  Q  Q  Q    H.          Q  Q   Q    H.
|----------|-0---------|-----------|-3----------|
|----------|-1---------|-----------|-3----------|
|-------2--|-----------|-----------|-0----------|
|----2-----|-----------|--------0--|------------|
|-0--------|-----------|----2------|------------|
|----------|-----------|-3---------|------------|


                          1.
  Q  Q   Q    H.           Q  Q  Q    Q  Q  Q
|-----------|-0----------|----------|-----------||
|-----------|-0----------|----------|----------o||
|--------0--|------------|-4--4--4--|-4--4--4---||
|----2------|------------|-4--4--4--|-4--4--4---||
|-3---------|------------|-2--2--2--|-2--2--2--o||
|-----------|------------|----------|-----------||
                                 end Rhy Fig 2A-|


  2.
  Rhy Fig 3 and Riff B


[ Tab from: http://www.guitartabs.cc/tabs/m/metallica/low_mans_lyric_tab_ver_5.html ]
 Interlude
w/Rhy Fig 1A + Riff A x2
  Gtr IV
   ~~~                                               ~~~
   Q.   E E E   A  Q   Q    Q     Q.    +E   E  E    H.
|-------------|-----------------|-----------------|-------------|
|-------------|-----------------|------------8s10s|==8----------|
|---------6---|-6h=7---6--------|-4-----(4)/-7s=9s|==7----------|
|-/7----7---7-|--------7----7S==|=5-----(5)/------|-------------|
|-------------|-----------------|-----------------|-------------|
|-------------|-----------------|-----------------|-------------|



    Q.    E  E  E    A  Q    Q   Q     E  E  E   E  E  E    E  E  E  E  E  E
|-----------------|-----------------|--------------------|-------------------|
|-----------------|-----------------|--------------------|-------------------|
|-----------11----|-11h12---11------|-------13-----14----|-16----14----13h14-|
|-/12----12----12-|-------------12--|-14-14-----14----14-|----14----14-------|
|-----------------|-----------------|--------------------|-------------------|
|-----------------|-----------------|--------------------|-------------------|



                                                             ~~~
   A  Q   +E    E E E   A  Q   Q    Q     Q.    +E   E  E    H.
|---------------------|-----------------|-----------------|-------------|
|---------------------|-----------------|------------8s10s|==8----------|
|-12h14--(14)\----6---|-6h=7---6--------|-4-----(4)/-7s=9s|==7----------|
|----14--(14)\-/7---7-|--------7----7S==|=5-----(5)/------|-------------|
|---------------------|-----------------|-----------------|-------------|
|---------------------|-----------------|-----------------|-------------|




    Q.    E  E  E    A  Q    Q   Q     E  E  E   E  E  E    E  E  E  E  Q
|-----------------|-----------------|--------------------|--------------------||
|-----------------|-----------------|--------------------|--------------------||
|-----------11----|-11h12---11------|-------13-----14----|-16----14----13\----||
|-/12----12----12-|-------------12--|-14-14-----14----14-|----14----14--------||
|-----------------|-----------------|--------------------|--------------------||
|-----------------|-----------------|--------------------|--------------------||


|-Miss out ou D.S.                                            --|
    Gtr V
|-Rhy Fig 4A                                     end Rhy Fig 4A-|
    A5  G           A5  F#          F5
    q   q    q      q   q    q      q   q    q      q   q  q
    |   |    |      |   |    |      |   |    |      |   |  |
    /   o    /      /   o    /      /   /    /      /   /  /

    Gtr I
    E E E E +E  E   E E E E +E  E   E E E E +E  E   E E Q  E E
||----------------|---------------|---------------|-------------||
||o-------1-(1)---|-------0-(0)---|---------------|---0--------o||
||------2-------2-|-----2-------2-|-------2-(2)-0h|=2---2--2-0--||
||----2-----------|---2-----------|-----3---------|-------------||
||o-0-------------|-0-------------|---3-----------|------------o||
||----------------|---------------|-1-------------|-------------||
||-Rhy Fig 4                                      end Rhy Fig 4-|
|
|   Gtr IV
|       ~               ~                               ~
|   Q   H           Q   H           H       +E  E   E E H
||----------------|---------------|---------------|-------------||
||o---------------|---------------|---------------|---0--------o||
||--2-------------|-2-------------|-------------0h|=2---2-------||
||--2-------------|-2-------------|-3-------(3)---|-------------||
||o-0-------------|-0-------------|-3-------(3)---|------------o||
||------3---------|-----2---------|-1-------(1)---|-------------||
 |-Rhy Fig 5                                      end Rhy Fig 5-|


   Bridge
Rhy Fig 4 + 4A + 5 x2

w/Rhy Fig 4 + 4A x2                                                 To Coda
        ~                                                    ~
    Q   H           Q   E    +E  +Q      H       +E  E   E E H
||----------------|--------------------|---------------|-------------||
||o---------------|--------------------|---------------|---0--------o||
||--2-------------|-2------------------|-------------0h|=2---2-------||
||--2-------------|-2------------------|-3-------(3)---|-------------||
||o-0---3---------|-0---5b6==(5)r(5)---|-3-------(3)---|------------o||
||----------------|--------------------|-1-------(1)---|-------------||


  Gtrs I, V
|-Rhy Fill 1A                        end Rhy Fill 1A-|
  E5
  Q   Q  Q     Q   Q  Q     Q   Q  Q     Q   Q  Q
  |   |  |     |   |  |     |   |  |     |   |  |
  /   /  /     /   /  /     /   /  /     /   /  /

  Gtr IV
  H.          +H.          +H.          +H.
|-----------|------------|------------|-------------||
|-----------|------------|------------|-------------||
|-----------|------------|------------|-------------||
|-2---------|-(2)--------|-(2)--------|-(2)---------||
|-2---------|-(2)--------|-(2)--------|-(2)---------||
|-0---------|-(0)--------|-(0)--------|-(0)---------||
|-Rhy Fill 1                         end Rhy Fill 1-|

 Verse 3
w/Riff A x2 + Rhy Fig 1A (1st 4 bars)
  Gtr IV
   H    Q      Q   Q    Q     Q  Q  E E    Q   Q   Q
|-----------|---------------|-3--3------|--------------|
|--2--------|---------------|-3--3------|-/7--/7-------|
|--2----2---|--2---2----2---|-0--0------|-/7--/7--/7---|
|--2----2---|--2---2----2---|-0---------|--------------|
|--0----0---|--0---0----0---|-2---------|--------------|
|-----------|---------------|-3-----3s5-|--------------|



      ~
   Q  H        +H      +Q      E Q.   Q      E Q.     Q
|------------|---------------|---0----0---|----3------3--|
|------------|---------------|---0----0---|----3------3--|
|-/7--7------|-(7)-----(7)\--|---1----1---|----0------0--|
|------------|---------------|---2----2---|----0------0--|
|------------|---------------|---2----2---|----2------2--|
|------------|---------------|---0----0---|----3------3--|
|
|  H     E E    E E Q   Q      E Q.   Q      E Q.     Q
|------------|--3p2----------|---0----0---|----3------3--|
|------------|------3--------|---0----0---|----3------3--|
|------------|----------2----|---1----1---|----0------0--|
|--0-----0-0-|---------------|---2----2---|----0------0--|
|------------|---------------|---2----2---|----2------2--|
|------------|---------------|---0----0---|----3------3--|
                             |-Rhy Fill 2               --|

w/Rhy Fig 1 A (1st 6 bars)
   H.           Q   Q    Q     Q  Q  E E    H     Q
|------------|---------------|-3--3------|------------|
|--2---------|---------------|-3--3--5---|--3---------|
|--2---------|--2---2----2---|-0--0--4s5-|--4---------|
|--2---------|--2---2----2---|-0---------|------------|
|--0---------|--0---0----0---|-2---------|------------|
|------------|---------------|-3---------|------------|



                                          D.S. al Coda
   H.          +H.           E Q.   Q      E Q.     Q
|------------|-------------|---0----0---|----3------3--||
|--3---------|-(3)---------|---0----0---|----3------3--||
|--2---------|-(2)---------|---1----1---|----0------0--||
|--0---------|-(0)---------|---2----2---|----0------0--||
|------------|-------------|---2----2---|----2------2--||
|------------|-------------|---0----0---|----3------3--||
                           |-w/Rhy Fill 2



&
Rhy Fill 1 + 1A


   Outro
 Rhy Fig 1 + Riff A x2

w/Riff A x2
                PM----------|            PM----|
   H.           Q  Q   Q    Q  Q  Q      Q  Q  Q
|------------|-10--9------|-----------|-10--9--7--|
|------------|--------10--|-8---------|-----------|
|------------|------------|-----------|-----------|
|------------|------------|-----------|-----------|
|--0---------|------------|-----------|-----------|
|------------|------------|-----------|-----------|


   PM           PM----------|            PM----|
   Q  Q  Q      Q  Q   Q    Q  Q  Q      Q  Q  Q
|-10---------|-10--9--10--|-7---------|-10--9--7--|
|------------|------------|-----------|-----------|
|------------|------------|-----------|-----------|
|------------|------------|-----------|-----------|
|------------|------------|-----------|-----------|
|------------|------------|-----------|-----------|


                PM----------|            PM----|
   Q  Q  Q      Q  Q   Q    Q  Q  Q      Q  Q  Q
|------------|-10--9------|-----------|-10--9--7--|
|-10---------|--------10--|-8---------|-----------|
|------------|------------|-----------|-----------|
|------------|------------|-----------|-----------|
|------------|------------|-----------|-----------|
|------------|------------|-----------|-----------|


   PM           PM----------|            PM----|
   Q  Q  Q      Q  Q   Q    Q  Q  Q      Q  Q  Q
|-10---------|-10--9--10--|-7---------|-10--9--7--|
|------------|------------|-----------|-----------|
|------------|------------|-----------|-----------|
|------------|------------|-----------|-----------|
|------------|------------|-----------|-----------|
|------------|------------|-----------|-----------|


    Gtr II
     H    E E    Q  Q   Q    H    E E    Q  Q  Q     H    E E
||--------7-9-|-10--9------|------7-9-|-10--9--7--|-------7-9--|
||o-10--------|--------10--|-8--------|-----------|-10---------|
||------------|------------|----------|-----------|------------|
||------------|------------|----------|-----------|------------|
||o-----------|------------|----------|-----------|------------|
||------------|------------|----------|-----------|------------|


              1.,2.                     3.
   Q  Q   Q    H    E E    Q  Q  Q       H.        +Q   Q  Q
|-10--9--10--|-7----7-9-|-10--9--7---||--7-------|-(7)---------*|
|------------|----------|-----------o||----------|-------------*|
|------------|----------|------------||----------|-------------*|
|------------|----------|------------||----------|-------------*|
|------------|----------|-----------o||----------|-------------*|
|------------|----------|------------||----------|-------------*|
Comments