Metallica - Loverman Chords & Tabs

 

Loverman Chords & Tabs

Metallica Chords & Tabs

Version: 3 Type: Tab 0 ratings
1 star 2 stars 3 stars 4 stars 5 stars
comments

Loverman Tab

   
Cm
x 3 5 5 4 x F5
1 3 3 x x x G5
3 5 5 x x x/tr 

Gtr I (Eb Ab Db Gb Bb Eb) - 'James Hetfield - Rhythm Clean Electric'
Gtr II (Eb Ab Db Gb Bb Eb) - 'Kirk Hammett - Rhythm Clean Electric'
Gtr III (Eb Ab Db Gb Bb Eb) - 'James Hetfield - Rhythm (Gtr I) w/dist'
Gtr IV (Eb Ab Db Gb Bb Eb) - 'Kirk Hammett - Rhythm (Gtr II) w/dist'
Gtr V (Eb Ab Db Gb Bb Eb) - 'Kirk Hammett - Lead Clean Electric w/reverb'

      Verse 1
  Q=68
 4/4
  Gtr I
  E     W           H     H
|---||-----------|--8----10----|
|---||--8--------|--9----11----|
|---||-----------|-10----12----|
|---||-10--------|-10----12----|
|---||-----------|--8----10----|
|---||-----------|-------------|
     |-Rhy Fig 1          end -|

w/Rhy Fig 1 x2
  Gtr II
   W           Q  E S S +S  S E +E. S
|-----------|-------------------------|
|-----------|-------------------------|
|-----------|-------------------------|
|-----------|-------------------------|
|-----------|-------6-5-(5)-6-5-(5)-6-|
|-----------|-------------------------|


   E. S +H.         Q  E S S  H
|----------------|-----------------|
|----------------|-----------------|
|----------------|-----------------|
|----------------|-----------------|
|----------------|-----6-5-6-------|
|--8--8-(8)------|-----------------|


Rhy Fig 1


w/Rhy Fig 1 x2
  Gtr II
   W           E. S +S  E S +E  E S S S S
|-----------|-----------------------------|
|-----------|-----------------------------|
|-----------|-----------------------------|
|-----------|-----------------------------|
|-----------|-----6-(6)-6-5-(5)-5-6-----6-|
|-----------|-----------------------8-6---|


   E. S +H.         Q  S S S S  S S S S S S S S
|----------------|------------------------------|
|----------------|------------------------------|
|----------------|------------------------------|
|----------------|-----5-6-5-6--5-6-5-5-6-5-5-5-|
|----------------|------------------------------|
|--8--8-(8)------|------------------------------|


Rhy Fig 1 x2



   Chorus
    Gtr IV
 |-Rhy Fig 2                        end Rhy Fig 2-|
    Cm           F5  G5     Cm           F5  G5
    E  S S E S S E E  E E   E  S S E S S E E  E E
    |  | | | | | | |  | |   |  | | | | | | |  | |
    /  / / / / x / /  / /   /  / / / / x / /  / /

    Gtr III
    TP           TP   TP    TP           TP   TP
    Q.       E   Q    Q     Q.       E   Q    Q    4x
||------------------------|------------------------||
||o-----------------------|-----------------------o||
||------------------------|------------------------||
||------------------------|------------------------||
||o-6------------8---10---|-6------------8---10---o||
||-----------8------------|----------8-------------||
 |-Riff A                               end Riff A-|

 Interlude
  Cm
   W                      W
   |
   /

           Gtr I
   >
   H.       S  S  S  S    H     H
|----------------------|-------------|
|----------------------|-------------|
|-------------------10-|-12----10----|
|-10-------10-12-13----|-------------|
|----------------------|-------------|
|--8-------------------|-------------|


  Gtrs I, II
   H.               S S S  S   H            H
|----------------------------|-----------------------|
|--8--8---8------------------|-8---------------------|
|-------8---7h8-5---5-7-8-10-|-------------10--------|
|-10--------------8-5---6p=5-|-3---3---1S6--5h6-5----|
|----------------------------|---6---6------------8--|
|----------------------------|-----------------------|
   E  E S S S S E E E   S  S   E S S S S E  S E S Q


   H.       S S S  S   H     H
|--------------------|----------------|
|--8-----------------|-8----------8h9-|
|-------------7-8-10-|------10--------|
|-10-------10--------|----------------|
|--------------------|----------------|
|--------------------|----------------|
                       H     Q  E S S
|-Fill 1                   end Fill 1-|


w/Fill 1
  Gtr II
   E  E S S E S S S S  S S E      E S S S S E  S E S Q
|-------------------------------|--------------------------||
|--8--6---6-----3---1-----------|--------------------------||
|-------8---7-5---3------3------|--------------------------||
|----------------------6---5----|-3---3---1S6--5h6-5-------||
|-------------------------------|---6---5------------8-----||
|-------------------------------|--------------------------||


 Chorus
  Riff A + Rhy Fig 2


 w/Rhy Fig 2 x3
    TP          TP  TP    TP          TP  TP
    H           Q   Q     H           Q   Q    3x
||----------------------|----------------------||
||o---------------------|---------------------o||
||----------------------|----------------------||
||----------------------|----------------------||
||o-------------8---8---|-------------8---8---o||
||--8-------------------|-8--------------------||


  Cm
   W             +H    H
   |              |
   /              /

   E E Q  H       W
|--------------|------------||
|--------------|------------||
|----8---------|------------||
|-10-----------|------------||
|----6---------|------------||
|--8-----------|------------||


 Verse 2
w/Rhy Fig 1 x7
  Gtr II
   W           Q  S E S  S S Q.
|-----------|---------------------|
|-----------|---------------------|
|-----------|---------------------|
|-----------|---------------------|
|-----------|-----6-5-6--5--------|
|-----------|--------------6-3----|


                                ~~~~
   W           Q  S S T T S +S  S Q  S S
|-----------|----------------------------|
|-----------|----------------------------|
|-----------|----------------------------|
|-----------|-------6-5h6-5-(5)-6p5------|
|-----------|--------------------------6-|
|-----------|------------------------6---|


   E. S +H.         H     Q  E S S
|----------------|-----------------|
|----------------|-----------------|
|----------------|-----------------|
|----------------|-----------------|
|----------------|---------------6-|
|--8--8-(8)------|-------------6---|


   E. S +H.         Q  S S S S  S S S S S S S S
|----------------|------------------------------|
|----------------|------------------------------|
|----------------|------------------------------|
|----------------|-----5-8p5h6p=5-8p5h6-8p5h6p5-|
|----------------|------------------------------|
|--8--8-(8)------|------------------------------|


   W           H     Q  T S. E
|-----------|------------------|
|-----------|------------------|
|-----------|------------------|
|-----------|------------------|
|-----------|-----------8------|
|-----------|-------------8----|


   H    S E. a E S S   a  E S S S S S S  S S S S a S S S S
|--------------------|-------------------------------------|
|--------------------|-------------------------------------|
|--------------------|-------------------------------------|
|--------------------|-------------------------------------|
|--------------------|----------8--------------------------|
|---------8--6h8-8-8-|-6h=8-8-8---8-8-8--8-8-8-8-6h8-8-8-8-|


   S S S S +Q   H       W
|--------------------|-------------|
|--------------------|-------------|
|--------------------|-------------|
|--------------------|-------------|
|--------------------|-------------|
|--8-8-8-8-(8)-------|-------------|


  Gtr III
   S E. Q  Q  S S S  S    H    Q  Q
|----------------------|-------------||
|----------------------|-------------||
|-------------8p7-8-10-|-10----8--7--||
|----------------------|-------------||
|-10-------------------|-------------||
|----------------------|-------------||


   Chorus
    Riff A + Rhy Fig 2 x4 (both)

[ Tab from: http://www.guitartabs.cc/tabs/m/metallica/loverman_tab_ver_3.html ]
 Interlude
  Gtr II
  Q  +S  T T T T T T T T T T T T T T Q    +H     Q  S E    +S
|---------------------------------------|-----------------------|
|--------3h4p3h4p3h4p3h4p3h4p3h4p3h4p3--|-(3)---------8b9==(8)r=|
|-5--(5)--------------------------------|-----------------------|
|-5--(5)--------------------------------|-----------------------|
|-3--(3)--------------------------------|-----------------------|
|---------------------------------------|-----------------------|
                                        |-Fill 2

  +E     +S  +S  +S  E    +S  +E     +S  +S  +S  E      +S
|-----------------------------------------------------------|
|-(8)b9==(8)r(8)-(8)----------------------------------------|
|--------------------5b6==(5)r(5)b6==(5)r(5)-(5)------------|
|------------------------------------------------3b4====(3)r|
|-----------------------------------------------------------|
|-----------------------------------------------------------|
|
| Gtr III
|  H.                                         S  S    S  S
|-----------------------------------------------------------|
|-----------------------------------------------------------|
|------------------------------------------------7----8-10--|
|-10-----------------------------------------10-------------|
|-----------------------------------------------------------|
|-----------------------------------------------------------|


  +E     +S  +S  +S  E    +S  +E     +S  +S  +Q
|-------------------------------------------------|
|-------------------------------------------------|
|-------------------------------------------------|
|-(3)b4==(3)r(3)-(3)-5b6==(5)r(5)b6==(5)r(5)-(5)--|
|-------------------------------------------------|
|-------------------------------------------------|
|                                      end Fill 2-|
|  ~~~~~~
|  H                           H
|-------------------------------------------------|
|--8----------------------------------------------|
|-----------------------------10------------------|
|-------------------------------------------------|
|-------------------------------------------------|
|-------------------------------------------------|

                     |-w/Fill 2
                       ~~      ~~
   H.       S S S  S   Q.   E  Q  E       E
|--------------------|------8--------------------|
|--8-----------------|-8------11--8--------------|
|-------------7-8-10-|-------------------10------|
|-10-------10--------|---------------------------|
|--------------------|---------------------------|
|--------------------|---------------------------|


   H.                                         S  S    S  S
|-----------------------------------------------------------|
|--8--------------------------------------------------------|
|------------------------------------------------7----8-10--|
|--------------------------------------------10-------------|
|-----------------------------------------------------------|
|-----------------------------------------------------------|


   Q              Q            Q              Q
|-------------------------------------------------||
|--8----------------------------------------------||
|----------------10------------7--------------8---||
|-------------------------------------------------||
|-------------------------------------------------||
|-------------------------------------------------||


   Chorus
    Riff A + Rhy Fig 2 x4 (both)


  Gtr III
                   >
   W              +H     H      W          W
|--------------|--------------|----------|------||
|--------------|--------------|----------|------||
|--------------|--------------|----------|------||
|-10-----------|-(10)---------|----------|------||
|--------------|--------------|----------|------||
|--8-----------|--(8)---------|----------|------||
|
| Gtr IV
|                  >
|  TP
|  H    +H        +H     H      W          W
|--------------|--------------|----------|------||
|--4----(4)----|--(4)---------|----------|------||
|--5----(5)----|--(5)---------|----------|------||
|--5----(5)----|--(5)---------|----------|------||
|--3----(3)----|--(3)---------|----------|------||
|--------------|--------------|----------|------||


 Verse 3
  Gtr I
                          ~~
   W          W           W          H    Q.   +E
|-----------|----------|-----------|-----------------|
|-----------|----------|-----------|-----------------|
|-/5--------|----------|-/5--------|-8----7----(7)S==|
|-----------|----------|-----------|-----------------|
|-----------|----------|-----------|-----------------|
|-----------|----------|-----------|-----------------|


  ~                     ~~~
  W            Q.    E  Q.    E   E E Q  Q  E E   Q  E E S E. +E  +E
|----------|--------------------|---------------|-----------------------|
|----------|--------------------|---------------|-----------------------|
|-5--------|-/13----13s12----12s|=5-----------5S|=8--8-8-8s7--(7)-(7)s==|
|----------|--------------------|---------------|-----------------------|
|----------|--------------------|---------------|-----------------------|
|----------|--------------------|---------------|-----------------------|


                                                     >
                    ~~~~~~~~~             ~~~~~~~~~~~~~~
  H.      Q     E  +Q.    Q.    +E    Q  +H.        +H     H      W
|------------|----------------------|-------------|-------------|------||
|------------|----------------------|-------------|-------------|------||
|-5----------|-13-(13)---12----(12)S|=5--(5)------|-(5)---------|------||
|------------|----------------------|-------------|-------------|------||
|------------|----------------------|-------------|-------------|------||
|------------|----------------------|-------------|-------------|------||


   Chorus
   wRhy Fig 2 x6
    Gtr III
    TP            TP    TP    TP            TP    TP
    H             Q     Q     H             Q     Q    6x
||--------------------------|--------------------------||
||o-------------------------|-------------------------o||
||--5-----------/10---/12---|-5-----------/10---/12----||
||--------------------------|--------------------------||
||o-------------------------|-------------------------o||
||--------------------------|--------------------------||


 Outro
  Gtr III                        Gtr V
    TP    TP
  E Q.   +E  S S S E.   +H     H
|---------------------|--------------|
|---5----(5)-5-5-5-5--|-(5)----5-----|
|-5-------------------|--------------|
|-5-------------------|-----------5--|
|-3-------------------|--------------|
|---------------------|--------------|
                         H     Q  Q


  Gtr V
  H    +E  S S E E   H    +E  S S E E   H    E E E S S   H    Q  Q
|------------------|------------------|----------------|------3-----|
|------------------|------------------|----------------|---------6--|
|------------------|------------------|----------------|------------|
|--------------5-5-|--------------5-5-|----------5-5-5-|------------|
|-3----(3)-3-3-----|-3----(3)-3-3-----|-3----3-3-------|-3----------|
|------------------|------------------|----------------|------------|


  +E  E H    E E    H    Q  Q    H.      S E S
|----------------|-------------|---------------|
|-(6)--------3-4-|-/6----4--3--|-----------3-4-|
|-------5--------|-------------|-5-------5-----|
|----------------|-------------|---------------|
|----------------|-------------|---------------|
|----------------|-------------|---------------|


  H    Q  Q    H    +Q.   S S   Q  Q  Q  Q
|------------|----------------|-------------|
|-6----4--3--|------------3-4-|-6--4--3-----|
|------------|-5----(5)-------|----------3--|
|------------|----------------|-------------|
|------------|----------------|-------------|
|------------|----------------|-------------|


  Gtrs I, V
                                     ~
           |-3-|
  H.       E E E   Q  Q   S S E Q    W
|----------------|-----------------|------*|
|------------3-4-|-6--4---6p4h6-3--|------*|
|-5--------8-----|-7-----/8-----3--|-5----*|
|----------------|-----------------|------*|
|----------------|-----------------|------*|
|----------------|-----------------|------*|
  H     Q  Q       H      Q     Q
Comments