Metallica - Loverman Chords & Tabs

 

Loverman Chords & Tabs

Metallica Chords & Tabs

Version: 2 Type: Tab 0 ratings
1 star 2 stars 3 stars 4 stars 5 stars
comments

Loverman Tab

Loverman
performed on Garage Inc.
tabbed by Phil Boyle 

tune all guitars down 1/2 step.

1)
eb--3--1--3
Bb--4--1--3
Gb--5--1--3
Db--5--3--5
Ab---------
Eb---------
"There's a devil waiting outside your door"
clean
the bass chord progression is C F G, there are small guitar parts
along those lines, and a lot of little fills.
[ Tab from: http://www.guitartabs.cc/tabs/m/metallica/loverman_tab_ver_2.html ]
2)
Gb--5---10--12
Db--5---10--12
Ab--3---8---10
Eb------------
"Loverman"
crunch
same basic progression, Kirk plays the same (or similar) progression
with the wah in full force.

3)
eb--3----------1-3--1--3h4p3-1---------------1-3--1
Bb-------1-3-4-----------------4-3-1---1-3-4-------
Gb-----------------------------------3-------------
Db-------------------------------------------------
Ab-------------------------------------------------
Eb-------------------------------------------------
the spelling bee part
clean 
====
Comments