Metallica - Leper Messiah Chords & Tabs

 

Leper Messiah Chords & Tabs

Metallica Chords & Tabs

Version: 3 Type: Tab 0 ratings
1 star 2 stars 3 stars 4 stars 5 stars
comments

Leper Messiah Tab

This is my first tab, I know it's correct because I've got the Master Of Puppets
tab book. This is one of my favourite Metallica songs, and it's heavier than a
m*therf*cker!!!...

e)--------*------------------*-------------*-------------------*
B)--------*---------------2--*-------------*-------------------*
G)--------*---------------2--*-------------*------------4------*
D)--------*-5---------5---2--*-------------*--5---------5------*
A)--2--2--*-3---2--2--3---0--*-------2--2--*--3---2--2--5------*
E)--0--0--*-3---0--0--3------*-------0--0--*--3---0--0--3------*
[ Tab from: http://www.guitartabs.cc/tabs/m/metallica/leper_messiah_tab_ver_3.html ]
e)-----------*------------------------*------------------------*
B)-----------*------------------------*------------------------*
G)-----------*-------------------2----*------------------------*
D)---2---2---*-5----2---2---5----3----*-----------------2--2---*
A)---2---2---*-3----2---2---5----3----*-----------------2--2---*
E)---0---0---*-3----0---0---3----1----*-----------------0--0---*

e)-------------------------*-----------------------*
B)-------------2-----------*-----------------------*
G)-------------2-----------*-----------------------*
D)---5---2--2--2---2--2----*-----------------------*
A)---3---2--2--0---2--2----*---------2-------------*
E)---3---0--0------0--0----*---5--3-----5--3--2--1-*
Comments