Metallica - Last Caress Chords & Tabs

 

Last Caress Chords & Tabs

Metallica Chords & Tabs

Version: 5 Type: Tab 0 ratings
1 star 2 stars 3 stars 4 stars 5 stars
comments

Last Caress Tab

   
Band- Metallica
Song- Last Caress

Gtr I (E A D G B E) - 'James Hetfield - Rhythm w/dist'
Gtr II (E A D G B E) - 'Kirk Hammett - Rhythm w/dist'
Gtr III (E A D G B E) - 'Kirk Hammett - Lead w/dist'

Last Caress            Verse
  Q=185
 4/4
  Gtr I
                         C5
  W          W           W
                         |
                         /
  Gtr II
  W          W           W
|----------|----------||------|


        F5  G5    C5               F5  G5
  +H     Q   Q    W          +H     Q   Q
   |     |   |    |           |     |   |
   /     /   /    /           /     /   /

   H     Q   Q    W           H     Q   Q
|---------------|----------|---------------|
|---------------|----------|---------------|
|-------10--12--|----------|-------10--12--|
|-------10--12--|----------|-------10--12--|
|--------8--10--|----------|--------8--10--|
|---------------|----------|---------------|


  Gtrs I, II
                             PM--------|
   W          W           Q  E E E E E E
|-----------|----------|-----------------|
|-----------|----------|-----------------|
|-10--------|-7--------|-----------------|
|-10--------|-7--------|-----------------|
|--8--------|-5--------|-10--------------|
|-----------|----------|--8--8-8-8-8-8-8-|


                                                         Verse - 2, 3 + 4
  PM----|               PM------------------|
  E E E E  Q   Q     Q  E E E E E E   E E E E  Q   Q 
|-----------------|-----------------|-----------------||--
|-----------------|-----------------|-----------------||o-
|---------10--12--|-----------------|---------10--12--||-- Rhy Fig 1 x2
|---------10--12--|-----------------|---------10--12--||--
|----------8--10--|-10--------------|----------8--10--||o-
|-8-8-8-8---------|--8--8-8-8-8-8-8-|-8-8-8-8---------||--
                  |-Rhy Fig 1           end Rhy Fig 1-|



      PM         PM|      PM       PM|
   Q  E  E  +Q   E E   Q  E E +Q   E E
|--------------------|-----------------|
|--------------------|-----------------|
|-10----10-(10)------|-7----7-(7)------|
|-10----10-(10)------|-7----7-(7)------|
|--8--8--8--(8)--8-8-|-5--5-5-(5)--5-5-|
|--------------------|-----------------|

[ Tab from: http://www.guitartabs.cc/tabs/m/metallica/last_caress_tab_ver_5.html ]
      PM         PM|                 PM|
   Q  E  E  +Q   E E   E  E E  E  Q  E E
|--------------------|-------------------||
|--------------------|-------------------||
|--------------------|-------------------||
|--------------------|-------------------||
|-10----10-(10)------|-9s10---10-10------||
|--8--8--8--(8)--8-8-|-7s=8----8--8--0-0-||


 Chorus
     PM       PM|      PM       PM------------------------------------|
  Q  E E +Q   E E   Q  E E +Q   E E   E E E E E E E E   E E E E E E E E
|-----------------|-----------------|-----------------|-----------------|
|-----------------|-----------------|-----------------|-----------------|
|-----------------|-----------------|-----------------|-----------------|
|-----------------|-----------------|-----------------|-----------------|
|-3----3-(3)------|-5----5-(5)------|-----7-------7---|-----------------|
|-1--1-1-(1)--1-1-|-3--3-3-(3)--3-3-|-8-8---8-7-7---7-|-5-5-5-5-5-5-5-5-|


                                     1.,2.
     PM       PM|      PM       PM|       PM--------|
  Q  E E +Q   E E   Q  E E +Q   E E    Q  E E E E E E
|-----------------|-----------------|-----------------|
|-----------------|-----------------|-----------------|
|-----------------|-----------------|-----------------|
|-----------------|-----------------|-----------------|
|-3----3-(3)------|-5----5-(5)------|-10--------------|
|-1--1-1-(1)--1-1-|-3--3-3-(3)--3-3-|--8--8-8-8-8-8-8-|


                              PM--------|
   E  E  E  E  +Q    Q     Q  E E E E E E    E  E  E  E  +Q    Q
|-----------------------|-----------------|------------------------||
|-----------------------|-----------------|-----------------------o||
|-10-10-10-12-(12)--12--|-----------------|-10-10-10-12-(12)--12---||
|-10-10-10-12-(12)--12--|-----------------|-10-10-10-12-(12)--12---||
|--8--8--8-10-(10)--10--|-10--------------|--8--8--8-10-(10)--10--o||
|-----------------------|--8--8-8-8-8-8-8-|------------------------||


    3.
        PM--------|
     Q  E E E E E E    E  E  E  E  +Q    Q   4x  W           +H      Q   Q
||------------------|------------------------||-----------|------------------||
||o-----------------|-----------------------o||-----------|------------------||
||------------------|-10-10-10-12-(12)--12---||-----------|---------10--12---||
||------------------|-10-10-10-12-(12)--12---||-----------|---------10--12---||
||o-10--------------|--8--8--8-10-(10)--10--o||-10--------|-(10)-----8--10---||
||---8--8-8-8-8-8-8-|------------------------||--8--------|--(8)-------------||
Comments