Metallica - Last Caress Chords & Tabs

 

Last Caress Chords & Tabs

Metallica Chords & Tabs

Version: 4 Type: Tab 0 ratings
1 star 2 stars 3 stars 4 stars 5 stars
comments

Last Caress Tab

   
Metallica - Last Caress (Misfits Cover)

Notes: Song is done with downstrokes (I think)
* means play the chord multiple times

Intro
e|-------------------------------------------|
B|---------10 12---------10-12-10---7--------|
G|--5------10-12---------10-12-10---7--------|
D|--5------10-12-10------10-12-10---7--------|
A|--3------8--10-10------8--10-8----5--------|
E|---------------8---------------------------|


Verse
e|---------------------------------------------|
B|---------------------------------------10-12-|
G|---------------------------------------10-12-|
D|-10-10-10-10--10-10-10-10--10-10-10-10-10-12-|
A|-10-10-10-10--10-10-10-10--10-10-10-10--8-10-|
E|-8--8--8--8---8--8--8--8---8--8--8--8--------|
[ Tab from: http://www.guitartabs.cc/tabs/m/metallica/last_caress_tab_ver_4.html ]
e|---------------------------------------------|
B|---------------------------------------------|
G|-10-10-10-10--10-10-10-10--7-7-7-7--7-7-7-7--|
D|-10-10-10-10--10-10-10-10--7-7-7-7--7-7-7-7--|
A|-8--8--8--8---8--8--8--8---5-5-5-5--5-5-5-5--|
E|---------------------------------------------|

e|----------------------------------------------------|
B|----------------------------------------------------|
G|----------------------------------------------------|
D|-10-10-10-10--10-10-10-10--10-10-10-10--10-10-10-10-|
A|-10-10-10-10--10-10-10-10--10-10-10-10--10-10-10-10-|
E|-8--8--8--8---8--8--8--8---8--8--8--8---8--8--8--8--|


Chorus Chords
   F5       G5       C5 E5  A5    F5       G5     C5  F5  G5
e|----------------------------------------------------------------------|
B|----------------------------------------------------------------------|
G|-10*-10*--12*-12*-----9*-------10*-10*--12*-12*-----10*-12*-----------|
D|-10--10---12--12…-10*-9--7*-7*-10--10---12--12--10*-10--12----------|
A|--8---8---10--10--10--7--7--7---8---8---10--10--10---8--10------------|
E|-------------------8-----5--5--------------------8--------------------|
Comments