Metallica - Last Caress Chords & Tabs

 

Last Caress Chords & Tabs

Metallica Chords & Tabs

Version: 2 Type: Bass Tab 0 ratings
1 star 2 stars 3 stars 4 stars 5 stars
comments

Last Caress Bass Tab

Artist: Metallica
Written by: Danzig
Submitted and Tabbed by: BFK

Note: I don't think I got the timing right, but if you listen to it, you can figure it out.

[Verse I]
G|---------|---------|---------|---------|---------|---------|---------|
D|----3-5--|---3-----|---------|---------|---3-5---|---------|---3-5---|
A|--------3|------5--|-3-3-3-3-|3-3-3-3-3|-3-------|3-3-3-3-3|-3-------|
E|---------|---------|---------|---------|---------|---------|---------|

[Verse II]
G|---------|---------|---------|---------|---------|---------|---------|---------|---------|
D|---------|---------|---3-5---|---------|---3-5--3|-3-3-3---|---------|---------|---------|
A|-3-3-3-3-|3-3-3-3-3|-3-------|3-3-3-3-3|-3-------|-------5-|5-5-5-3-3|-3-3-3-3-|3-3------|
E|---------|---------|---------|---------|---------|---------|---------|---------|---------|

[Chorus]
G|---------|---------|---------|---------|---------|
D|-3-3-3-5-|5-------2|-2-------|---------|---------|
A|---------|----3-3--|---0-0---|-3-3-3-3-|3-3-3-3--|
E|---------|---------|---------|---------|---------|

[Bridge]
[ Tab from: http://www.guitartabs.cc/tabs/m/metallica/last_caress_btab_ver_2.html ]
G|---------|---------|---------|---------|---------|---------|---------|---------|---------|
D|---------|---------|---3-5---|---------|---------|---3-5---|3-3-3-3--|---------|---------|
A|-3-3-3-3-|3-3-3-3-3|-3-------|-3-3-3-3-|3-3-3-3-3|-3-------|--------5|-5-5-5-3-|2-3-2-3--|
E|---------|---------|---------|---------|---------|---------|---------|---------|---------|

[Chorus]
G|---------|---------|---------|---------|---------|
D|-3-3-3-5-|5-------2|-2-------|---------|---------|
A|---------|----3-3--|---0-0---|-3-3-3-3-|3-3-3-3--|
E|---------|---------|---------|---------|---------|

[Verse III]
G|---------|---------|---------|---------|---------|---------|---------|---------|---------|
D|---------|---------|---3-5---|---------|---3-5--3|-3-3-3---|---------|---------|---------|
A|-3-3-3-3-|3-3-3-3-3|-3-------|3-3-3-3-3|-3-------|-------5-|5-5-5-3-3|-3-3-3-3-|3-3------|
E|---------|---------|---------|---------|---------|---------|---------|---------|---------|

[Chorus]
G|---------|---------|---------|---------|---------|
D|-3-3-3-5-|5-------2|-2-------|---------|---------|
A|---------|----3-3--|---0-0---|-3-3-3-3-|3-3-3-3--|
E|---------|---------|---------|---------|---------|

[Outro]
G|---------|---------|---------|---------|---------|---------|
D|---------|---------|---3-5---|---------|---------|---3-5---|
A|-3-3-3-3-|3-3-3-3-3|-3-------|-3-3-3-3-|3-3-3-3-3|-3-------|
E|---------|---------|---------|---------|---------|---------| (Repeats, then goes into "Green Hell"
Comments