Metallica - Its Electric Chords & Tabs

 

Its Electric Chords & Tabs

Metallica Chords & Tabs

Version: 1 Type: Tab 0 ratings
1 star 2 stars 3 stars 4 stars 5 stars
comments

Its Electric Tab

It's Electric
originally performed by Diamond Head
as performed by Metallica on Garage Inc.,
tab by Phil Boyle; phil@encycmet.com


tune all guitars down 1/2 step
1)
Db---------------
Ab--9-7---7------
Eb------9---9-7-5

[ Tab from: http://www.guitartabs.cc/tabs/m/metallica/its_electric_tab.html ]
2)
Gb------------------------------------------------------
Db----------2-----2-----2-4-4----------2-----2-----2-4-4
Ab--4-4-----0-----0-----0-2-2--4-4-----0-----0-----0-2-2
Eb--2-2-2-2---2-2---2-2--------2-2-2-2---2-2---2-2------
       pm..   ...   ...            ...   ...   ...

3)
Gb------------------------------
Db--4-4-4-----9-----------------
Ab--2-2-2---9-7-9--9-7---7------
Eb----------7---7------9---9-7-5


4)
Gb-------x-x--2----x-x
Db--2-4--x-x--2-4--x-x
Ab--2-4--x-x--0-4--x-x
Eb--0-2--x-x----2--x-x
"Gonna be a rock and roll star"


5)
Db--9-9-9-9-8-8-8-8-7-7-7-7-6-6-6-6
Ab--9-9-9-9-8-8-8-8-7-7-7-7-6-6-6-6
Eb--7-7-7-7-6-6-6-6-5-5-5-5-4-4-4-4
mid-solo


6)
Db--4--2--4--2--2-3-4---4
Ab--2--0--4--2--2-3-4---4
Eb--------2--0--0-1-2---2
end of solo
Comments