Metallica - Human Chords & Tabs

 

Human Chords & Tabs

Metallica Chords & Tabs

Version: 3 Type: Tab 0 ratings
1 star 2 stars 3 stars 4 stars 5 stars
comments

Human Tab

   
                                 -HUMAN
          			as played on Metallica: S&M
				tuned down 1 1/2 steps
                                                       tabbed by J. Wren
						any questions e-mail joewren@yahoo.com

    e  e  e  q     e  q     e  e  q  e  e  e  q     e  e  e  q  q  e    
C#----------------------------------------------------------------------
G#----------------------------------------------------------------------
E-----------------------------------------------------------------------
B---------------------------7-----5-----------------------4--5--5-------
F#--------------------------7-----5-----------------------4--5--5-------
C#--0--0--0--7~~~--0--6~~~--5--0--3--0--0--0--7~~~--6--0--2--3--3--0----
                                                                        

    e  e  q     e  q     e  e  q  e  e  e  q     e  e  e  q  q  e  e    
C#----------------------------------------------------------------------
G#----------------------------------------------------------------------
E-----------------------------------------------------------------------
B------------------------7-----5-----------------------4--5--5----------
F#-----------------------7-----5-----------------------4--5--5----------
C#--0--0--7~~~--0--6~~~--5--0--3--0--0--0--7~~~--6--0--2--3--3--0--0----
                                                                        

    e  q     e  q     e  e  q  e  e  e  q     e  e  e  q  q  e  e  e    
C#----------------------------------------------------------------------
G#----------------------------------------------------------------------
E-----------------------------------------------------------------------
B---------------------7-----5-----------------------4--5--5-------------
F#--------------------7-----5-----------------------4--5--5-------------
C#--0--7~~~--0--6~~~--5--0--3--0--0--0--7~~~--6--0--2--3--3--0--0--0----
                                                                        

    q     e  q     e  e  q  e  e  e  q     e  e  e  q  q  Q  Q  Q  q    
C#----------------------------------------------------------------------
G#----------------------------------------------------------------------
E-----------------------------------------------------------------------
B------------------7-----5-----------------------4--5--5--2--2--2--2----
F#-----------------7-----5-----------------------4--5--5--2--2--2--2----
C#--7~~~--0--6~~~--5--0--3--0--0--0--7~~~--6--0--2--3--3--0--0--0--0----
                                                                        

    e  e  e  e  e  Q  Q  Q  q  e  e  e  e     Q  Q  Q  q  e  e  e  e    
C#----------------------------------------------------------------------
G#----------------------------------------------------------------------
E-----------------------------------------------------------------------
B------------------2--2--2--2-----------------2--2--2--2----------------
F#-----------------2--2--2--2-----------------2--2--2--2----------------
C#--0--6--7--6--5--0--0--0--0--0--6--7--6--x--0--0--0--0--0--6--7--6----
                                                                        

    e  e  e  e  e  Q  Q  Q  q  e  e  e  e  e  Q  Q  Q  q  e  e  e  e    
C#----------------------------------------------------------------------
G#----------------------------------------------------------------------
E-----------------------------------------------------------------------
B------------------2--2--2--2-----------------2--2--2--2----------------
F#-----------------2--2--2--2-----------------2--2--2--2----------------
C#--5--3--5--3--2--0--0--0--0--0--6--7--6--5--0--0--0--0--0--6--7--6----
                                                                        

       Q  Q  Q  q  e  e  e  e  e  e  e  e  e  Q  Q  q  Q  Q  q  Q  Q    
C#----------------------------------------------------------------------
G#----------------------------------------------------------------------
E-----------------------------------------------------------------------
B------2--2--2--2-----------------------------------------------2--2----
F#-----2--2--2--2-----------------------------2--2--2--5--5--5--0--0----
C#--x--0--0--0--0--0--6--7--6--5--3--5--3--2--0--0--0--3--3--3----------
                                                                        

    Q  Q  Q  Q  q  e  e  e  e  e  Q  Q  q  Q  Q  q  Q  Q  q  Q  Q  q    
C#----------------------------------------------------------------------
G#----------------------------------------------------------------------
E-----------------------------------------------------------------------
B---2--2--2--2--2-----------------------------------2--2--2--4--4--4----
F#--0--2--2--2--2-----------------2--2--2--5--5--5--0--0--0--2--2--2----
C#-----0--0--0--0--0--6--7--6--5--0--0--0--3--3--3----------------------
                                                                        

    Q  Q  Q  q  e  e  e  e  e  Q  Q  Q  q  e  e  e  e     Q  Q  Q  q    
C#----------------------------------------------------------------------
G#----------------------------------------------------------------------
E-----------------------------------------------------------------------
B---2--2--2--2-----------------2--2--2--2-----------------2--2--2--2----
F#--2--2--2--2-----------------2--2--2--2-----------------2--2--2--2----
C#--0--0--0--0--0--6--7--6--5--0--0--0--0--0--6--7--6--x--0--0--0--0----
                                                                        

    e  e  e  e  e  e  e  e  e  e  e  e  q     e  q     e  e  q  e  e    
C#----------------------------------------------------------------------
G#----------------------------------------------------------------------
E-----------------------------------------------------------------------
B------------------------------------------------------7-----5----------
F#-----------------------------------------------------7-----5----------
C#--0--6--7--6--5--3--5--3--2--0--0--0--7~~~--0--6~~~--5--0--3--0--0----
                                                                        

    e  q     e  e  e  q  q  e  e  e  q     e  q     e  e  q  e  e  e    
C#----------------------------------------------------------------------
G#----------------------------------------------------------------------
E-----------------------------------------------------------------------
B------------------4--5--5--------------------------7-----5-------------
F#-----------------4--5--5--------------------------7-----5-------------
C#--0--7~~~--6--0--2--3--3--0--0--0--7~~~--0--6~~~--5--0--3--0--0--0----
                                                                        
[ Tab from: http://www.guitartabs.cc/tabs/m/metallica/human_tab_ver_3.html ]
    q     e  e  e  q  q  Q  Q  Q  q  e  e  e  e  e  Q  Q  Q  q  e  e    
C#----------------------------------------------------------------------
G#----------------------------------------------------------------------
E-----------------------------------------------------------------------
B---------------4--5--5--2--2--2--2-----------------2--2--2--2----------
F#--------------4--5--5--2--2--2--2-----------------2--2--2--2----------
C#--7~~~--6--0--2--3--3--0--0--0--0--0--6--7--6--5--0--0--0--0--0--6----
                                                                        

    e  e     Q  Q  Q  q  e  e  e  e  e  e  e  e  e  Q  Q  q  Q  Q  q    
C#----------------------------------------------------------------------
G#----------------------------------------------------------------------
E-----------------------------------------------------------------------
B------------2--2--2--2-------------------------------------------------
F#-----------2--2--2--2-----------------------------2--2--2--5--5--5----
C#--7--6--x--0--0--0--0--0--6--7--6--5--3--5--3--2--0--0--0--3--3--3----
                                                                        

    Q  Q  q  Q  Q  Q  q  e  e  e  e  e  Q  Q  q  Q  Q  q  Q  Q  q  Q    
C#----------------------------------------------------------------------
G#----------------------------------------------------------------------
E-----------------------------------------------------------------------
B---2--2--2--2--2--2--2-----------------------------------2--2--2--4----
F#--0--0--0--2--2--2--2-----------------2--2--2--5--5--5--0--0--0--2----
C#-----------0--0--0--0--0--6--7--6--5--0--0--0--3--3--3----------------
                                                                        

    Q  q  Q  Q  Q  q  e  e  e  e  e  Q  Q  Q  q  e  e  e  e     Q  Q    
C#----------------------------------------------------------------------
G#----------------------------------------------------------------------
E-----------------------------------------------------------------------
B---4--4--2--2--2--2-----------------2--2--2--2-----------------2--2----
F#--2--2--2--2--2--2-----------------2--2--2--2-----------------2--2----
C#--------0--0--0--0--0--6--7--6--5--0--0--0--0--0--6--7--6--x--0--0----
                                                                        

    Q  q  e  e  e  e  e  e  e  e  e  e  e  e  q     e  q     e  e  q    
C#----------------------------------------------------------------------
G#----------------------------------------------------------------------
E-----------------------------------------------------------------------
B---2--2-----------------------------------------------------7-----5----
F#--2--2-----------------------------------------------------7-----5----
C#--0--0--0--6--7--6--5--3--5--3--2--0--0--0--7~~~--0--6~~~--5--0--3----
                                                                        

    e  e  e  q     e  e  e  q  q  e  e  e  q     e  q     e  e  q  e    
C#----------------------------------------------------------------------
G#----------------------------------------------------------------------
E-----------------------------------------------------------------------
B------------------------4--5--5--------------------------7-----5-------
F#-----------------------4--5--5--------------------------7-----5-------
C#--0--0--0--7~~~--6--0--2--3--3--0--0--0--7~~~--0--6~~~--5--0--3--0----
                                                                        

    e  e  q     e  e  e  q  q                                           
C#-----------------------------|----------------------------------------
G#-----------------------------|----------------------------------------
E------------------------------|----------------------------------------
B---------------------4--5--5--|----------------------------------------
F#--------------------4--5--5--|----------------------------------------
C#--0--0--7~~~--6--0--2--3--3--|----------------------------------------
                                                                        

pause during solo

    e  e  e  q     e  q     e  e  q  e  e  e  q     e  e  e  q  q  e    
C#----------------------------------------------------------------------
G#----------------------------------------------------------------------
E-----------------------------------------------------------------------
B---------------------------7-----5-----------------------4--5--5-------
F#--------------------------7-----5-----------------------4--5--5-------
C#--0--0--0--7~~~--0--6~~~--5--0--3--0--0--0--7~~~--6--0--2--3--3--0----
                                                                        

    e  e  q     e  w  e  e  e  q     e  e  e  q  q                      
C#----------------------------------------------------------------------
G#----------------------------------------------------------------------
E-----------------------------------------------------------------------
B------------------------------------------4--5--5----------------------
F#-----------------------------------------4--5--5----------------------
C#--0--0--7~~~--0--6--0--0--0--7~~~--6--0--2--3--3----------------------
                                                                        



========================================================================
==                       TABLATURE EXPLANATION                        ==
========================================================================

----------                ----------                ----t---
----5h8--- Hammeron       ----(8)--- Ghost          ----6--- Tap
----------                ---------- Note           --------
----5p8--- Pulloff        ----------                --------

----------                ----------                -----p--
----5/8--- Slide Up       -----x---- Dead           -----7-- Pop
----------                ---------- Note           --s-----
----5\8--- Slide Down     ----------                --5----- Slap 

----------                ||------|| Repeat         --------
----5~~~-- Vibrato        ||*----*||                ---5^--- Bend
----------                ||*----*||                --------
----------                ||------||                --------

----------                ----------                --------
-4:------- Time           ----------                --------
-4:------- Signature      ----------                --------
----------                ----------                --------

Rhythm:
  w = whole note            W = dotted whole
  h = half note             H = dotted half
  q = quarter note          Q = dotted quarter
  e = eighth note           E = dotted eighth
  s = sixteenth note        S = dotted sixteenth
  t = 32nd note             T = dotted 32nd
  x = 64th note             X = dotted 64th
  ^ = triplet

========================================================================
==               Created with BUCKET O' TAB for Windows               ==
========================================================================
Comments