Metallica - Human Chords & Tabs

 

Human Chords & Tabs

Metallica Chords & Tabs

Version: 2 Type: Tab 0 ratings
1 star 2 stars 3 stars 4 stars 5 stars
comments

Human Tab

#----------------------------------PLEASE NOTE--------------------------------#
#This file is the author's own work and represents their interpretation of the#
#song. You may only use this file for private study, scholarship, or research.#
#-----------------------------------------------------------------------------#
#-- File created with Instab - http://www.pconline.com/~smcarey/instab.html --#
#-----------------------------------------------------------------------------#

Author/Artist: Metallica
Title: -Human
Album: S&M
Transcribed by: Tom Roberts
Email: tomrobertskelly@hotmail.com

This is the much easier version for it. Drop-D tuning.

Order:
Main x4
Pre-Verse
Verse
Pre-Verse
Main
Pre-Verse
Verse
Pre-Verse
Main
Interlude
Main

------------------------------------------------------------------------------
------------------------------------------------------------------------------
------------------------------------------------------------------------------
-0-0-0--7-0-6\3-0-3--0-0-0-7\6-0-2/3-3----------------------------------------
-0-0-0--7-0-6\3-0-3--0-0-0-7\6-0-2/3-3----------------------------------------
-0-0-0--7-0-6\3-0-3--0-0-0-7\6-0-2/3-3----------------------------------------
   Main Riff                                                                  
[ Tab from: http://www.guitartabs.cc/tabs/m/metallica/human_tab_ver_2.html ]
------------------------------------------------------------------------------
------------------------------------------------------------------------------
------------------------------------------------------------------------------
-0--0--0--0--5/7\5\3--0--0--0--0--5/7v--0--0--0--0--5/7\5\3-3/5\3\1-----------
-0--0--0--0--5/7\5\3--0--0--0--0--5/7v--0--0--0--0--5/7\5\3-3/5\3\1-----------
-0--0--0--0--5/7\5\3--0--0--0--0--5/7v--0--0--0--0--5/7\5\3-3/5\3\1-----------
    Pre-Verse                                                                 

------------------------------------------------------------------------------
------------------------------------------------------------------------------
------------------------------------------------------------------------------
-0--2--3--2--0--0--0--0--5/7\5\3---0--2--3--4---------------------------------
-0--2--3--2--0--0--0--0--5/7\5\3---0--2--3--4---------------------------------
-0--2--3--2--0--0--0--0--5/7\5\3---0--2--3--4---------------------------------
    Verse                                                                     

------------------------------------------------------------------------------
------------------------------------------------------------------------------
------------------------------------------------------------------------------
--0----0----0----0----0----0----0----0----------------------------------------
--0----0----0----0----0----0----0----0----------------------------------------
--0----0----0----0----0----0----0----0----------------------------------------
   Interlude                                                                  

Comments