Metallica - House That Jack Built Chords & Tabs

 

House That Jack Built Chords & Tabs

Metallica Chords & Tabs

Version: 2 Type: Tab 0 ratings
1 star 2 stars 3 stars 4 stars 5 stars
comments

House That Jack Built Tab

metallica    The House Jack Built
mike grant

Intro:      Tune Guitars down 1/2 step
|----------------|---------|-------------------------|
|.--------------.|.-------.|-------------------------|
|----------------|--3/5--7-|---3/5--7--10--12--5--7--|
|--------3-----5-|---------|-------------------------|
|.-----3-----5--.|.-------.|-------------------------|
|---1/----3------|--Fill1--|--Fill2(Before Entrance)-|
    sl.      Open door so I walk inside...........
[ Tab from: http://www.guitartabs.cc/tabs/m/metallica/house_that_jack_built_tab_ver_2.html ]
Entrance:                   Guitar1:       
|--------------------------|----------------
|--------------------------|.------h-p---^--
|--------------------------|---5--3-5-3--2--
|---3--3--3--3--3--3--3--2-|------------1/2-
|---3--3--3--3--3--3--3--2-|.---------------
|---1--1--1--1--1--1--1--0-|-----bend up and

Fill 2:Guitar1              Fill 2:Guitar2
|--------------------------|----------------|
|-------2--4-----4---2-----|----------------|
|---2/3------3/5---3---2---|-----5----------|
|--------------------------|--5--5--2-------|
|--------------------------|--5--3--2-------|
|--------------------------|--3-----0-------|
Comments