Metallica - Hit The Lights Chords & Tabs

 

Hit The Lights Chords & Tabs

Metallica Chords & Tabs

Version: 3 Type: Tab 0 ratings
1 star 2 stars 3 stars 4 stars 5 stars
comments

Hit The Lights Tab

Hit The Light
Metallica
Kill`em All


      Tremelo Picking For The Whole Time
E|-------------------------------------------------------------------|
B|-------------------------------------------------------------------|
G|-------------------------------------------------------------------|
D|----2--------------------------------------------------------------|
A|----2--------------------------------------------------------------|
E|----0--------------------------------------------------------------|

      Tremelo Picking For The Whole Time
E|-------------------------------------------------------------------|
B|-------------------------------------------------------------------|
G|-------------------------------------------------------------------|
D|----4--------------------------------------------------------------|
A|----4--------------------------------------------------------------|
E|----2--------------------------------------------------------------|

  Part 1. Play Once
E|-------------------------------------------------|
B|-------------------------------------------------|
G|----------------------------5---7--7-----0---5---|    1st Time - Part 2.
D|----5-----------------------5---7--7-----0---5---|    2nd Time - Part 3.
A|----0-----0--0--0--0--0--0-----------------------|
E|-------------------------------------------------|

  Part 2. Play Once then back
E|---------------------------------------------|
B|---------------------------------------------|
G|-----------------------/P\-------------------|
D|-----------------------7-5------5------------|
A|----0--0--0--0--0--0---------7------6--7-----|
E|---------------------------------------------|

  Part 3.  Play Once.
E|-----------------------------------|
B|---------------------------Full----|
G|----------------------------7------|
D|----------------------/H\----------|
A|----0--0--0--0--0--0--6-7----------|
E|-----------------------------------|

  Part 1. Play Part 1 & 2 After each other (Two Times)
E|-------------------------------------------------|
B|-------------------------------------------------|
G|----------------------------5---7--7-----0---5---|
D|----5-----------------------5---7--7-----0---5---|
A|----0-----0--0--0--0--0--0-----------------------|
E|-------------------------------------------------|

  Part 2. Play Once then back
E|---------------------------------------------|
B|---------------------------------------------|
G|-----------------------/P\-------------------|
D|-----------------------7-5------5------------|
A|----0--0--0--0--0--0---------7------6--7-----|
E|---------------------------------------------|
[ Tab from: http://www.guitartabs.cc/tabs/m/metallica/hit_the_lights_tab_ver_3.html ]
E|--------------------------------------------------------|
B|--------------------------------------------------------|
G|----7---7-------------------7---7-------5---4-----------|
D|----7---7-------5---5-------7---7-------5---4---5-------|
A|----5---5-------5---5-------5---5-------3---2---5-------|
E|----------------3---3---------------------------3-------|
 1. No life 'til leather, we're gonna kick some ass tonight
 2. Know our fans are insane, we're gonna blow this place away

Then Part 1 & 2 Twice

   Play Once
E|--------------------------------------------------------|
B|--------------------------------------------------------|
G|----7---7-------------------7---7-------5---4-----------|
D|----7---7-------5---5-------7---7-------5---4---5-------|
A|----5---5-------5---5-------5---5-------3---2---5-------|
E|----------------3---3---------------------------3-------|
  1. Got the metal madness, When our fans start screamin' it's alright
  2. With volume higher, Than anything today, the only way, yeah.

Then Part 1 & 2 Once

   Play Once
E|----------------------------------------------|
B|----------------------------------------------|
G|----9-------9-------------------5---4---------|
D|----9-------9-------5---4---5---5---4---5-----|
A|----7-------7-------5---4---5---3---2---5-----|
E|--------------------3---2---3-----------3-----|
     When we start to rock we never stop again.

Chorus
======

   Play Once
E|--------------------------------------------------|
B|--------------------------------------------------|
G|--------------------------------------------------|
D|-----2---2--------2---2--------2--2------5--------|
A|-----0---0--------0---0--------0--0------3----5---|
E|---------------3------------3-----------------3---|
                                          Hit  the
   Play Once
E|--------------------------------------------------|
B|--------------------------------------------------|
G|--------------------------------------------------|
D|-----2---2--------2---2--------2--2------5--------|
A|-----0---0--------0---0--------0--0------3----5---|
E|---------------3------------3-----------------3---|
     lights___.                           Hit  the

   Play Once
E|--------------------------------------------------|
B|--------------------------------------------------|
G|--------------------------------------------------|
D|-----2---2--------2---2--------2--2------5--------|
A|-----0---0--------0---0--------0--0------3----5---|
E|---------------3------------3-----------------3---|
     lights___.                           Hit  the

   Play Once (then second verse)
E|----------------------------|
B|----------------------------|
G|----------------------------|
D|-----2---2-----5-------2----|
A|-----0---0-----3---5---0----|
E|-------------------3--------|
Comments