Metallica - Harvester Of Sorrow Chords & Tabs

 

Harvester Of Sorrow Chords & Tabs

Metallica Chords & Tabs

Version: 8 Type: Tab 0 ratings
1 star 2 stars 3 stars 4 stars 5 stars
comments

Harvester Of Sorrow Tab

   
Harvester Of Sorrow - Metallica
From album - And Justice for All...
Song and lyrics by Hetfield and Ulrich

OK guys,
Here goes my second tab, and what better song to tab than the Harvester of Sorrow?


LEGEND

m = Mute
P.M. - Palm Mute
p = pull off
h = hammer
~ = viabrate
b = bend
r = release
() = ghost note


Standard E tuning

Intro - 2 GUITARS 
e-----------------------I-------------------I
B-----------------------I-------------------I
G-----------------------I-------------------I
D----------5-5----------I-------5-5---------I
A----5-5---3-2-0-5-5-2--I-5-5---3-2-0-5-5-2-I
E----3-2-0-------3-2-0--I-3-2-0-------3-2-0-I

ONLY HETFIELD
-----------------------I-------------------I
-----------------------I-------------------I
-----------------------I-------------------I
-----3-2----5-3-2------I------3------------I
---2-------2-----------I----2---5-0h3h5-5--I
-0--------0------------I--0----------------I
While this is going on Hammet just lets his open string distortion continue

ONLY HETFIELD
-----------------------I-------------------I
-----------------------I-------------------I
-----------------------I-------------------I
-----3-2----5-3-2------I------3------------I
---2-------2-----------I----2---5-0h3h5-5--I
-0--------0------------I--0----------------I

ONLY HETFIELD
-----------------------I-------------------I
-----------------------I-------------------I
-----------------------I-------------------I
-----3-2----5-3-2------I------3------------I
---2-------2-----------I----2---5-0h3h5-5--I
-0--------0------------I--0----------------I
This time Hammet plays his open string distortion with more power


ONLY HETFIELD
-----------------------I-------------------I
-----------------------I-------------------I
-----------------------I-------------------I
-----3-2----5-3-2------I------3------------I
---2-------2-----------I----2---5-0h3h5-5--I
-0--------0------------I--0----------------I

TWO GUITARS WITH DISTORTION
-----------------------I-------------------I
-----------------------I-------------------I
-----------------------I-------------------I
-----3-2----5-3-2------I------3------------I
---2-------2-----------I----2---5-0h3h5-5--I
-0--------0------------I--0----------------I

-----------------------I-------------------I
-----------------------I-------------------I
-----------------------I-------------------I
-----3-2----5-3-2------I------3------------I
---2-------2-----------I----2---5-0h3h5-5--I
-0--------0------------I--0----------------I

-----------------------I-------------------I
-----------------------I-------------------I
-----------------------I-------------------I
-----3-2----5-3-2------I------3------------I
---2-------2-----------I----2---5-0h3h5-5--I
-0--------0------------I--0----------------I

-----------------------I-------------------I
-----------------------I-------------------I
-----------------------I-------------------I
-----3-2----5-3-2------I------3------------I
---2-------2-----------I----2---5-0h3h5-5--I
-0--------0------------I--0----------------I


----------------------------------I------------------------------I
----------------------------------I------------------------------I
----------------------------------I------------------------------I
----------5-5---------------------I-------5-5--------------------I
----5-5---3-2-0-5-5-2-2-2-2-2-2-2-I-5-5---3-2-0-5-5-1-1-1-1-1-1-0I
----3-2-0-------3-2-0-0-0-0-0-0-0-I-3-2-0-------3-2-3-3-3-3-3-3-2I


----------------------------------I------------------------------I
----------------------------------I------------------------------I
----------------------------------I------------------------------I
----------5-5---------------------I-------5-5--------------------I
----5-5---3-2-0-5-5-2-2-2-2-2-2-2-I-5-5---3-2-0-5-5-1-1-1-1-1-1-0I
----3-2-0-------3-2-0-0-0-0-0-0-0-I-3-2-0-------3-2-3-3-3-3-3-3-2I

----------------------------------I------------------------------I
----------------------------------I------------------------------I
----------------------------------I------------------------------I
----------5-5---------------------I-------5-5--------------------I
----5-5---3-2-0-5-5-2-2-2-2-2-2-2-I-5-5---3-2-0-5-5-1-1-1-1-1-1-0I
----3-2-0-------3-2-0-0-0-0-0-0-0-I-3-2-0-------3-2-3-3-3-3-3-3-2I

-----------------------I--------------------------I----------------------------------------I
-----------------------I--------------------------I----------------------------------------I
-----------------------I--------------------------I----------------------------------------I
----------5-5----------I--------------------------I----------------------------------------I
----5-5---3-2-0-5-5-2--I--5----------7------------I-5----------6---------------------------I
----3-2-0-------3-2-0--I--3-SLIDE TO-5-SLIDE TO 0-I-3-SLIDE TO-8-SLIDE TO 0----------------I

-----------------------I
-----------------------I							
-----------------------I								
-----------------------I
-4-2-2-22--4-3-6-2-2-2-I								
-2-0m0m00--2-5-8-0m0m0-I									

-----------------------I
-----------------------I
-----------------------I
-----------------------I
-4-2-2-22--4-3-10-10-10-10-I
-2-0m0m00--2-5-12-12m12m12-I


***********************************

-----------------------I
-----------------------I
-----------------------I
-----------------------I
-4-2-2-22--4-3-6-2-2-2-I
-2-0m0m00--2-5-8-0m0m0-I

-----------------------I
-----------------------I
-----------------------I
-----------------------I
-4-2-2-22--4-3-10-10-10-10-I
-2-0m0m00--2-5-12-12m12m12-I

This whole thing was the intro and now the verse



------------I
------------I
------------I
------------I
-4-2-2-22---I
-2-0m0m00---I
My life suffocates

-----------------------I
-----------------------I
-----------------------I
-----------------------I
-----2-2-2-------------I
-3-2-0m0m0-------------I
Planting the seeds of hate


-----------------------I
-----------------------I
-----------------------I
-----------------------I
-----2-2-2-------------I
-3-2-0m0m0-------------I
I've loved, turned to hate 


-----------------------I
-----------------------I
-----------------------I
-----------------------I
-----5-5-5-5-5---------I
-2-3-3m3m3-3-3---------I
Trapped far beyond my fate 



-----------------------I
-----------------------I
-----------------------I
-----------------------I
-----2-2-------2-2-2---I
-3-2-0-0---3-2-0m0m0---I
I give you take


-----------------------I
-----------------------I
-----------------------I
-----------------------I
-----2-2-2-------------I
-3-2-0m0m0-------------I
This life that I forsake


-----------------------I
-----------------------I
-----------------------I
-----------------------I
-----2-2-2-------------I
-3-2-0m0m0-------------I
Been cheated of my youth


-----------------------I
-----------------------I
-----------------------I
-----------------------I
-----5-5-5-5-5---------I
-2-3-3m3m3-3-3---------I
You turned this lie to truth 

-----------------------I-------------------I
-----------------------I-------------------I
-----------------------I-------------------I
-----3-2----5-3-2------I------3------------I
---2-------2-----------I----2---5-0h3h5-5--I
-0--------0------------I--0----------------I

-----------------------I
-----------------------I
-----------------------I
-----------------------I
-----2-2-------2-2-2---I
-3-2-0-0---3-2-0m0m0---I
Anger, mysery you suffer unto me

-----------------------I-------------------I
-----------------------I-------------------I
-----------------------I-------------------I
-----3-2----5-3-2------I------3------------I
---2-------2-----------I----2---5-0h3h5-5--I
-0--------0------------I--0----------------I


---------------I------------------------------I
---------------I------------------------------I
---------------I------------------------------I
---------------I-------5-5--------------------I
-2-2-2-2-2-2-2-I-5-5---3-2-0-5-5-1-1-1-1-1-1-0I
-0-0-0-0-0-0-0-I-3-2-0-------3-2-3-3-3-3-3-3-2I


----------------------------------I------------------------------I
----------------------------------I------------------------------I
----------------------------------I------------------------------I
----------5-5---------------------I-------5-5--------------------I
----5-5---3-2-0-5-5-2-2-2-2-2-2-2-I-5-5---3-2-0-5-5-1-1-1-1-1-1-0I
----3-2-0-------3-2-0-0-0-0-0-0-0-I-3-2-0-------3-2-3-3-3-3-3-3-2I
Harvester of Sorrow (language of the grey)
Harvester of Sorrow
[ Tab from: http://www.guitartabs.cc/tabs/m/metallica/harvester_of_sorrow_tab_ver_8.html ]
-----------------------I-------------------I
-----------------------I-------------------I
-----------------------I-------------------I
-----3-2----5-3-2------I------3------------I
---2-------2-----------I----2---5-0h3h5-5--I
-0--------0------------I--0----------------I

go back to the * marked and repeat, but of course with different lyrics
then comes the solo


 Solo:
|-------------------------------------|-------------------------------------|
|--15b17---15b17~---15b17---15b17r15b-|--r15--17b19--15b17---15b17-r15------|
|-------------------------------------|---------------------------------14--|
|-------------------------------------|-------------------------------------|
|-------------------------------------|-------------------------------------|
|-------------------------------------|-------------------------------------|
|
|
|--------------------------------------|------------------------------------|
|-----0----------------0---------------|----0---------0-------0----0--------|
|-----1----------------1---------------|----1---------1-------1----1--------|
|-----2----------------2---------------|----2---------2-------2----2--------|
|-----2----------------2---------------|----2---------2-------2----2--------|
|--2--0---------0-1-2--0----------0-1--|-2--0---------0-------0----0----0-1-|
  PM		PM...|		 PM.......|				PM.|

|--17b19---17b19---15p14----14----------------------------|
|------------------------17----17p15-17-15p14\12-14p12\10-|
|---------------------------------------------------------|
|---------------------------------------------------------|
|---------------------------------------------------------|
|---------------------------------------------------------|
|
|
|---------------------------------------------------------|
|-------0-------------------0-----------------------------|
|-------1-------------------1-----------------------------|
|-------2-------------------2-----------------------------|
|-------2-------------------2-----------------------------|
|--2----0----------0--1--2--0-----------------------0--1--|
  PM		   PM....|			    PM..|

|---------------------------------------------------------------------|
|--12b14r12p10--12b14r12p10-12b14r12p10-12b14r12p10-12b14-~-~---------|
|-------------------------------------------------------------12--14--|
|---------------------------------------------------------------------|
|---------------------------------------------------------------------|
|---------------------------------------------------------------------|
|
|
|---------------------------------------------------------------------|
|--------3------------------3-------------------3----------3----------|
|--------4------------------4-------------------4----------4----------|
|--------5------------------5-------------------5----------5----------|
|--------5------------------5-------------------5----------5----------|
|--2-----3------------------3-------------------3----------3----0--1--|
  PM							        PM..|

|-----------------------------------------------|
|-----------------------------------------------|
|--11h12p11-------------------------------------|
|--------------------------/14-~-~-~--------14--|
|------------14------14h15----------------------|
|-----------------------------------------------|
|
|
|-----------------------------------------------|
|-------0-----------------------0---------------|
|-------1-----------------------1---------------|
|-------2-----------------------2---------------|
|-------2-----------------------2---------------|
|--2----0------------0--1--2----0---------0--1--|
  PM		    PM......|		 PM...|

|-----------------14-15/19---------17--15--|--15h17p15p14----14h15p14------|
|--------14-15-17--------------------------|---------------------------15--|
|--14h16-----------------------------------|-------------------------------|
|------------------------------------------|-------------------------------|
|------------------------------------------|-------------------------------|
|------------------------------------------|-------------------------------|
|
|
|------------------------------------------|-------------------------------|
|-------0-------------0--------0----0------|-------------------------------|
|-------1-------------1--------1----1------|-------------------------------|
|-------2-------------2--------2----2------|-------------------------------|
|-------2-------------2--------2----2------|---------0---------------------|
|--2----0-------------0--------0----0--0-1-|--2------------------------2-1-|
  PM				      PM..|

|----------------|-----------------|
|--17------------|--(17)-----------|
|----------------|-----------------|
|----------------|-----------------|
|----------------|-----------------|
|----------------|-----------------|
|
|
|----------------|-----------------|
|----------------|-----------------|
|----------------|-----------------|
|----------------|-----------------|
|-----1----------|-----1-----------|
|--2---------0-1-|--2----------0-1-|

|------------------------|----------------------------|-------------------------------|
|----0----0----0--0------|----------------------------|-------------------------------|
|----1----1----1--1------|------------------------2-3-|-------------------------------|
|----2----2----2--2------|-2----------0--2--3-3-5-----|---------------------4\3-------|
|----2----2----2--2------|-2--0h1p0-3-----------------|-2--2-2-2--2-2-5\4---2\1---3\1-|
|-2--0----0----0--0--0-2-|-0--------------------------|-0--0-0-0--0-0-3\2-0-----0-5\3-|
					    PM...|      PM...........|

|----------------------------|-------------------------------|
|----------------------------|-------------------------------|
|------------------------2---|-------------------------------|
|-2----------0--2--3-3-5---3-|---------------------4\3-------|
|-2--0h1p0-3-----------------|-3--3-3-3--3---5\4---2\1---3\1-|
|-0--------------------------|-1--1-1-1--1-0-3\2-0-----0-5\3-|
		   PM...|      PM...........|
			          ____________________________________
  two guitars	                   |1.			        |
||------------------------------------|------------------------------------||
||------------------------------------|------------------------------------||
||o-3p2p0-2-3-2-0---------------------|-3p2p0-2-3-5-3-3p2p0---------------o||
||o-3p2p0-2-3-2-0-3p2p0---------------|-3p2p0-2-3-5-3-3p2p0---------------o||
||----------------3p2p0-2--2-2-2--2-2-|---------------------3--3-3-3--3----||
||----------------------0--0-0-0--0-0-|---------------------1--1-1-1--1-0--||

 ___________________________________
|2.3.
|-----------------------------------||
|-----------------------------------||
|-3p2p0-2-3-5-3-3p2p0--------------o||
|-3p2p0-2-3-5-3-3p2p0----3-----3---o||
|------------------------3-----3----||
|---------------------1--1-1-1-1----||
		     PM	   PM.|

|-------------------------|-----------------------------|
|-------------------------|-----------------------------|
|-----------------0-------|-----------------------------|
|-------3--2---------3--2-|-------3--0------0---3-----3-|
|----2----------2---------|----2----------0-----3-----3-|
|-0-----------0-----------|-0-----------3-----1-1-1-1-1-|
 PM...|	     PM..|	   PM...|      PM..| PM   PM.|

|----------------------------------|
|----------------------------------|
|-3p2p0-2-3-5-3-3p2p0--------------|
|-3p2p0-2-3-5-3-3p2p0----3-----3---|
|------------------------3-----3---|
|---------------------1--1-1-1-1---|
		     PM	   PM.|


Go back to the top and play the Riffs. Its just the same. Well, critics are
welcome to write to me at hetfielder@hotmail.com. Questions, comments,
corrections all are welcome.

Bye for now! Here are the lyrics


My life suffocates 
Planting seeds of hate 
I've loved, turned to hate 
Trapped far beyond my fate 

I give, you take 
This life that I forsake 
Been cheated of my youth 
You turned this lie to truth 

Anger, misery 
You'll suffer unto me 

Harvester of sorrow 
Language of the mad 
Harvester of sorrow 

Pure black, looking clear 
My work is done soon here 
Try getting back to me 
Get back which used to be 

Drink up 
Shoot in 
Let the beatings begin 
Distributor of pain 
Your loss becomes my gain 


Anger 
Misery 
You'll suffer unto me 

Harvester of sorrow 
Language of the mad 
Harvester of sorrow 

All have said their prayers 
Invade their nightmares 
To see into my eyes 
You'll find where murder lies 

Infanticide 

Harvester of sorrow 
Language of the mad 
Harvester of sorrow 
Language of the mad 
Harvester of sorrow 


Words and Music by James Hetfield and Lars Ulrich
Comments