Metallica - Harvester Of Sorrow Chords & Tabs

 

Harvester Of Sorrow Chords & Tabs

Metallica Chords & Tabs

Version: 6 Type: Tab 0 ratings
1 star 2 stars 3 stars 4 stars 5 stars
comments

Harvester Of Sorrow Tab

   
Tabed By : Twisted13
Metallica
Album: And justice for all...
Song: Harvester Of Sorrow


Intro x 2
e----------------------------------------------------------- 
B----------------------------------------------------------- 
G-----------4--3-------------------------------------------- 
D--5--4-----4--3-----5--4--2-~------------------------------ 
A--5--4-----2--1-----5--4--2-~------------------------------ 
E--3--2--0--------0--3--2--0-~------------------------------ 

Riff 1                             
Gtr 1 (x4 without distortions)
e-----------------------------------------------------------
B----------------------------------------------------------- 
G----------------------------------------------------------- 
D-----3-2---0--5--3--2-------3-0-------2---2---------------- 
A---2----------------------2---------0---------------------- 
E-0----------------------0---------3-----3------------------ 

Gtr2 (only while Riff 1 is not in distortion)
e----------------------------------------------------------- 
B----------------------------------------------------------- 
G----------------------------------------------------------- 
D-------2~----------------------2~-------------------------- 
A-------2~----------------------2~-------------------------- 
E-------0~----------------------0~-------------------------- 
                                *Listen to find right timing
Intro again
[ Tab from: http://www.guitartabs.cc/tabs/m/metallica/harvester_of_sorrow_tab_ver_6.html ]
Riff 2
                   
e----------------------------------------------------------- 
B----------------------------------------------------------- 
G---------------------------4/-3---------------------------- 
D--2--2-2--2--2-2--5/-4-----4/-3-----5/-4------------------- 
A--2--2-2--2--2-2--5/-4-----2/-1-----5/-4------------------- 
E--0--0-0--0--0-0--3/-2--0--------0--3/-2------------------- 
pm:..............        .        .


e----------------------------------------------------------- 
B----------------------------------------------------------- 
G---------------------------4/-3---------------------------- 
D--3--3-3--3--3-3--5/-4-----4/-3-----5/-4------------------- 
A--3--3-3--3--3-3--5/-4-----2/-1-----5/-4------------------- 
E--1--1-1--1--1-1--3--2--0--------0--3/-2------------------- 
pm:..............        .        .


Riff 3

e----------------------------------------------------------- 
B----------------------------------------------------------- 
G----------------------------------------------------------- 
D----------------------------------------------------------- 
A----------------------------------------------------------- 
E-2-2-2/5b~---2-2-2/5b~---5b-5b-0~----2-2-2/6b~---6b-6b-0---



e---------------------|------------------|------------------------ 
B---------------------|------------------|------------------------ 
G---------------------|--------3---------|-------------7---------- 
D--2-2--4/-5--2--2-~--|2-2--4--3--2--2--2|-----2-2--4--7--5--5--5- 
A--2-2--4/-5--2--2-~--|2-2--4--1--2--2--2|[x3]-2-2--4--5--5--5--5- 
E--0-0--2/-3--0--0-~--|0-0--2-----0--0--0|-----0-0--2-----3--3--3- 
pm:...                 ...                     ...



e----------------------------------------------------------------- 
B----------------------------------------------------------------- 
G-------------------------------------------7--------------------- 
D--2-2--4/-5--2--2--2---------------2-2--4--7--5--5--5------------ 
A--2-2--4/-5--2--2--2---[repeat]----2-2--4--5--5--5--5------------ 
E--0-0--2/-3--0--0--0---------------0-0--2-----3--3--3------------ 
pm:...                              ...
	
I dont little riff after solo(If u do Email me)
 
pm = palm mute 
/  = slide
~  = hold note
b  = bend
Comments