Metallica - Harvester Of Sorrow Chords & Tabs

 

Harvester Of Sorrow Chords & Tabs

Metallica Chords & Tabs

Version: 1 Type: Tab 2 ratings
1 star 2 stars 3 stars 4 stars 5 stars
comments

Harvester Of Sorrow Tab

   
(tab)

   Song: Harvester Of Sorrow
 Artist: Metallica
  Album: ...And Justice For All
  

intro    both guitars
|-------------------|------------------------|
|-------------------|------------------------|
|-------------------|------------------------|
|-------4-3-2-------|-2---------4-3-2--------|
|5-4-2--2-1-0--5-2--|-2----5-4-2--2-1-0-5-2--|
|3-2-0---------3-4--|-0----3-2-0--------3-4--|

  guitar 2
|-----------------------------|--------------------|
|-----------------------------|--------------------|
|--------------------0--------|--------------------|X2
|--------3--2------0----3--2--|-----3--0----0---0--|
|-----2----------2------------|---2--------0-------|
|--0--------------------------|0----------3---1----|

   guitar 2
|-----------------------------|--------------------|
|-----------------------------|--------------------|
|--------------------0--------|--------------------|
|--------3--2------0---3--2---|------3--0---0---0--|
|-----2----------2------------|---2--------0-------|
|--0--------------------------|0----------3---1----|
|  guitar 1                                        |X2
|--------------------------------------------------|
|--------------------------------------------------|
|--------------------------------------------------|
|-2------------------------------------------------|
|-2-LET-RING-~~------------------------------------|
|-0------------------------------------------------|



3 times      both guitars 
|-----------------------------|---------------------|
|-----------------------------|---------------------|
|---------------------0-------|---------------------|
|--------3--2-------0---3--2--|--------3--0----0--0-|
|-----2-----------2-----------|-----2---------0-----|
|--0--------------------------|--0-----------3---1--|
PM...........................|

|-------------------------------|
|-------------------------------|
|-------------------------------|
|--------3--2--------4-3-2------|
|-----2--------5-4-2-2-1-0-5-4--|
|--0-----------3-2-0-------3-2--|
 PM....|

Rhy Fig 1 end Rhy Fig 1
|--------------------------------|--------------------------------|
|--------------------------------|--------------------------------|
|--------------------------------|--------------------------------|
|----------------------4\3-------|---------------------4\3--------|
|--2--2-2-2--2-2-5\4---2\1---5\3-|-3--3-3-3--3---5\4---2\1---5\4--|
|--0--0-0-0--0-0-3\2-0-----0-3\2-|-1--1-1-1--1-0-3\2-0-----0-3\2--|
 PM......................................|

Rhy Fig 1A end Rhy Fig 1A
|--------------------------------|---------------------------------|
|--------------------------------|---------------------------------|
|--------------------------------|---------------------------------|
|----------------------4\3-------|---------------------3-3-3-3-----|
|--2--2-2-2--2-2-5\4---2\1---5\3-|-3--3-3-3--3---5-4---1-1-1-1-----|
|--0--0-0-0--0-0-3\2-0-----0-3\2-|-1--1-1-1--1-0-3-2-0---------3---|
 PM.................................................|

|------------|------------|------------|----------|----------------|
|------------|------------|------------|----------|----------------|
|------------|------------|------------|----------|----------------|
|-2----------|------------|------------|----------|----------------|
|-2----------|---0--------|---0--------|----------|---1--(1) ~ ----|
|-0------0-1-|-2------0-1-|-2------2-1-|-0----0-1-|-2----------2-1-|

|------------|----------------------|------------------------|
|------------|----------------------|------------------------|
|------------|----4---4---4--4------|----------2---2--2------|
|------------|----2---2---2--2------|----------2---2--2------|
|------------|----2---2---2--2------|----1-----2---2--2------|
|-0------1-1-|--2-0---0---0--0--0-1-|-2-----0--0---0--0--0-1-|
 PM.............|      PM..|

|--------------------------|------------------------|
|--------------------------|------------------------|
|------------2---2--2------|----------2---2--2------|
|------------2---2--2------|----------2---2--2------|
|----1-------2---2--2------|----1-----2---2--2------|
|-2-----0----0---0--0--0-1-|-2-----0--0---0--0--0-1-|
 PM......| PM...........| PM..|

|-----------------------|------------------------|------------------------|
|-----------------------|------------------------|------------------------|
|---------4---4--4------|----------2---2--2------|----------4---4--4------|
|----0----5---5--5------|----------2---2--2------|----0-----5---5--5------|
|------5--5---5--5------|----1-----2---2--2------|-------5--5---5--5------|
|-2----3--3---3--3--0-1-|-2-----0--0---0--0--0-1-|-2-----3--3---3--3--0-1-|
 PM PM PM..........|    PM......| PM    PM..|

Verse

My life suffocates    planting the seeds of hate I've loved, turned to hate
|------------------------|----------------------------|-------------------------|
|------------------------|----------------------------|-------------------------|
|----2----2----2--2------|----2----2----2--2----------|----2----2----2--2-------|
|----2----2----2--2------|----2----2----2--2----------|----2----2----2--2-------|
|----2----2----2--2------|----2----2----2--2----------|----2----2----2--2-------|
|-2--0----0----0--0--0-1-|-2--0----0----0--0--0-1-----|-2--0----0----0--0--0-1--|
 PM PM..|

Trapped far beyond my fate i give, you take this life that i forsake
|------------------------|------------------------|------------------------|
|----3----3----3--3------|------------------------|------------------------|
|----4----4----4--4------|----2-----------2-------|----2----2----2--2------|
|----5----5----5--5------|----2-----------2-------|----2----2----2--2------|
|----5----5----5--5------|----2-----------2-------|----2----2----2--2------|
|-2--3----3----3--3--0-1-|-2--0----0-1-2--0---0-1-|-2--0----0----0--0--0-1-|

Been cheated of my youth you turnd this love to truth
|------------------------|------------------------|--------------------------|
|------------------------|----3----3----3--3------|--------------------------|
|----2----2----2--2------|----4----4----4--4------|-------------------0------|
|----2----2----2--2------|----5----5----5--5------|-------3--2------0---3--2-|
|----2----2----2--2------|----5----5----5--5------|----2----------2----------|
|-2--0----0----0--0--0-1-|-2--3----3----3--3--0-1-|-0------------------------|
                    PM......|        PM.|

|---------------------------|
|---------------------------|
|---------------------------|
|-------3--0----0-----------|
|----2---------0------------|
|-0-----------3------1--0-1-|

PRE CHORUSRhy Fig 2A 

                        E5
Anger,  misery    you'll suffer unto me
|-------------------------|------------------------|---------------------------|
|-------------------------|------------------------|---------------------------|
|----2-----------2--------|----2----2----2--2------|--------------------0------|
|----2-----------2--------|----2----2----2--2------|-------3--2-------0---3--2-|
|----2-----------2--------|----2----2----2--2------|----2-----------2----------|
|-2--0----0-1-2--0----0-1-|-2--0----0----0--0--0-1-|-0-------------------------|
PM   PM.....| PM......|         PM.........|     PM..|

E5   
End Rhy Fig 2A
|------------------------|
|------------------------|
|------------------------|
|-------3--0------0----0-|
|----2----------0--------|
|-0-----------3------1---|
 PM............|

|--------------------------------|-------------------------------|
|--------------------------------|-------------------------------|
|--------------------------------|-------------------------------|
|----------------------4\3-------|---------------------4-3-------|
|--2--2-2-2--2-2-5\4---2\1---5\3-|-3--3-3-3--3---5-4---2-1-0-5-4-|
|--0--0-0-0--0-0-3\2-0-----0-3\2-|-1--1-1-1--1-0-3-2-0-------3-2-|
 PM.................................................|

CHORUS
W/Rhy Fig 1
  
  Harvester of sorrow.     language of the mad.

W/Rhy Fig 1A  

  Hayester of sorrow.

[ Tab from: http://www.guitartabs.cc/tabs/m/metallica/harvester_of_sorrow_tab.html ]
|-------------------------|---------------------------|
|-------------------------|---------------------------|
|------------------0------|---------------------------|
|-------3--2-----0---3--2-|-------3--0------0---------|
|----2---------2----------|----2----------0----3------|
|-0-----------------------|-0-----------3------1--0-1-|
 PM......................................|

|-------------------------|-------------------------|
|-------------------------|-------------------------|
|----------4----4--4------|----------2----2--2------|
|----------2----2--2------|----------2----2--2------|
|----1-----2----2--2------|----1-----2----2--2------|
|-2-----0--0----0--0--0-1-|-2-----0--0----0--0------|

|-------------------------|------------------------|
|-------------------------|------------------------|
|----------2----2--2------|----------4---4--4------|
|----------2----2--2------|----0-----5---5--5------|
|----1-----2----2--2------|-------5--5---5--5------|
|-2-----0--0----0--0--0-1-|-2-----3--3---3--3--0-1-|

2nd Verse
W/Rhy Fig 2

Pure black looking clear. My work is done soon here.
Try getting back to me. Get back what used to be.
Drink up, shoot in.    Let the beatings begin.
Distributor of pain.    Your loss becomes my gain. 

Pre Chorus 
W/Rhy Fig 2A

 Anger, misery,    	you'll suffer onto me. 

Rhy Fig 1

Chorus 
W/Rhy Fig 1

 Harvester of sorrow.    Language of the mad. 

W/Rhy Fig 1a 

  Harvester of sorrow.


|-------------------------|-------------------------|
|-------------------------|-------------------------|
|------------------0------|------------------0------|
|-------3--2-----0----3-2-|------3--2------0---3--2-|
|----2---------2----------|----2---------2----------|
|-0-----------------------|-0-----------------------|
 PM...|   PM..|     PM...| PM.|

|-------------------------|---------------------------|
|-------------------------|---------------------------|
|------------------0------|---------------------------|
|-------3--2-----0---3--2-|-------3--0------0---------|
|----2---------2----------|----2----------0----5------|
|-0-----------------------|-0-----------3------3--0-2-|
 PM...|  PM..|       PM..| PM.|

SOLO:
|-------------------------------------|-------------------------------------|
|--15b17---15b17~---15b17---15b17r15b-|--r15--17b19--15b17---15b17-r15------|
|-------------------------------------|----------------------------------14-|
|-------------------------------------|-------------------------------------|
|-------------------------------------|-------------------------------------|
|-------------------------------------|-------------------------------------|
|
|--------------------------------------|------------------------------------|
|--------------------------------------|------------------------------------|
|-----2-----------------2--------------|----2---------2-----------2---------|
|-----2-----------------2--------------|----2---------2-----------2---------|
|-----2-----------------2--------------|----2---------2-----------2---------|
|--2--0----------0-1-2--0---------0-1--|-2--0---------0-----------0----0-1--|

|--17b19---17b19---15p14----14----------------------------|
|------------------------17----17p15-17-14p14\12-14p12\10-|
|---------------------------------------------------------|
|---------------------------------------------------------|
|---------------------------------------------------------|
|---------------------------------------------------------|
|                                                         |
|---------------------------------------------------------|
|---------------------------------------------------------|
|-------2-------------------2-----------------------------|
|-------2-------------------2-----------------------------|
|-------2-------------------2-----------------------------|
|--2----0----------0--1--2--0-----------------------0--1--|

|---------------------------------------------------------------------|
|--12b14r12p10--12b14r12p10-12b14r12p10-12b14r12p10-12b14-~-~---------|
|-------------------------------------------------------------12--14--|
|---------------------------------------------------------------------|
|---------------------------------------------------------------------|
|---------------------------------------------------------------------|
|								      |
|---------------------------------------------------------------------|
|--------3-----------------3--------------------3-----------3---------|
|--------4-----------------4--------------------4-----------4---------|
|--------5-----------------5--------------------5-----------5---------|
|--------5-----------------5--------------------5-----------5---------|
|--2-----3-----------------3--------------------3-----------3----0--1-|

|--------------------------------------------------|
|--------------------------------------------------|
|--11h12p11----------------------------------------|
|---------------------------/14-~-~------------14--|
|------------14------14h15-------------------------|
|--------------------------------------------------|
|                                                  |
|--------------------------------------------------|
|--------------------------------------------------|
|-------2----------------------2-------------------|
|-------2----------------------2-------------------|
|-------2----------------------2-------------------|
|--2----0-----------0--1--2----0-------------0--1--|

|-----------------14-15/19---------17--15--|--15h17p15p14----14h15p14------|
|--------14-15-17--------------------------|---------------------------15--|
|--14h16-----------------------------------|-------------------------------|
|------------------------------------------|-------------------------------|
|------------------------------------------|-------------------------------|
|------------------------------------------|-------------------------------|
|
|------------------------------------------|-------------------------------|
|------------------------------------------|-------------------------------|
|-------2------------2--------2----2-------|-------------------------------|
|-------2------------2--------2----2-------|-------------------------------|
|-------2------------2--------2----2-------|---------0---------------------|
|-------0------------0--------0----0--0-1--|--2------------------------2-1-|

|----------------|-----------------||--17------------|--(17)-----------|
|----------------|-----------------||----------------|-----------------|
|----------------|-----------------||----------------|-----------------||
|----------------|-----------------||----------------|-----------------|
|----------------|-----------------||----------------|-----------------|
|-----1----------|-----1-----------||--2---------0-1-|--2----------0-1-|

|------------------------|----------------------------|-----------------------------
|----0----0----0--0------|----------------------------|-----------------------------
|----1----1----1--1------|------------------------2-3-|-----------------------------
|----2----2----2--2------|-2----------0--2--3-3-5-----|---------------------4\3-----
|----2----2----2--2------|-2--0h1p0-3-----------------|-2--2-2-2--2-2-5\4---2\1---3\
|-2--0----0----0--0--0-2-|-0--------------------------|-0--0-0-0--0-0-3\2-0-----0-5\
                   
|----------------------------|-------------------------------|
|----------------------------|-------------------------------|
|------------------------2---|-------------------------------|
|-2----------0--2--3-3-5---3-|---------------------4\3-------|
|-2--0h1p0-3-----------------|-3--3-3-3--3---5\4---2\1---3\1-|
|-0--------------------------|-1--1-1-1--1-0-3\2-0-----0-5\3-| 
                
|------------------------------------|------------------------------------|
|------------------------------------|------------------------------------|
|--3p2p0-2-3-2-0---------------------|-3p2p0-2-3-5-3-3p2p0----------------|
|--3p2p0-2-3-2-0-3p2p0---------------|-3p2p0-2-3-5-3-3p2p0----------------|
|----------------3p2p0-2--2-2-2--2-2-|---------------------3--3-3-3--3----|
|----------------------0--0-0-0--0-0-|---------------------1--1-1-1--1-0--|

|-----------------------------------|
|-----------------------------------|
|-3p2p0-2-3-5-3-3p2p0---------------|
|-3p2p0-2-3-5-3-3p2p0----3-----3----|
|------------------------3-----3----|
|---------------------1--1-1-1-1----|   

(tab/)
Comments