Metallica - Harvester Of Sorrow Solo Chords & Tabs

 

Harvester Of Sorrow Solo Chords & Tabs

Metallica Chords & Tabs

Version: 1 Type: Tab 0 ratings
1 star 2 stars 3 stars 4 stars 5 stars
comments

Harvester Of Sorrow Solo Tab

(tab)

SOLO:
|-------------------------------------|-------------------------------------|
|--15b17---15b17~---15b17---15b17r15b-|--r15--17b19--15b17---15b17-r15------|
|-------------------------------------|----------------------------------14-|
|-------------------------------------|-------------------------------------|
|-------------------------------------|-------------------------------------|
|-------------------------------------|-------------------------------------|
|
|--------------------------------------|------------------------------------|
|--------------------------------------|------------------------------------|
|-----2-----------------2--------------|----2---------2-----------2---------|
|-----2-----------------2--------------|----2---------2-----------2---------|
|-----2-----------------2--------------|----2---------2-----------2---------|
|--2--0----------0-1-2--0---------0-1--|-2--0---------0-----------0----0-1--|

|--17b19---17b19---15p14----14----------------------------|
|------------------------17----17p15-17-14p14\12-14p12\10-|
|---------------------------------------------------------|
|---------------------------------------------------------|
|---------------------------------------------------------|
|---------------------------------------------------------|
|                                                         |
|---------------------------------------------------------|
|---------------------------------------------------------|
|-------2-------------------2-----------------------------|
|-------2-------------------2-----------------------------|
|-------2-------------------2-----------------------------|
|--2----0----------0--1--2--0-----------------------0--1--|

|---------------------------------------------------------------------|
|--12b14r12p10--12b14r12p10-12b14r12p10-12b14r12p10-12b14-~-~---------|
|-------------------------------------------------------------12--14--|
|---------------------------------------------------------------------|
|---------------------------------------------------------------------|
|---------------------------------------------------------------------|
|								      |
|---------------------------------------------------------------------|
|--------3-----------------3--------------------3-----------3---------|
|--------4-----------------4--------------------4-----------4---------|
|--------5-----------------5--------------------5-----------5---------|
|--------5-----------------5--------------------5-----------5---------|
|--2-----3-----------------3--------------------3-----------3----0--1-|
[ Tab from: http://www.guitartabs.cc/tabs/m/metallica/harvester_of_sorrow_solo_tab.html ]
|--------------------------------------------------|
|--------------------------------------------------|
|--11h12p11----------------------------------------|
|---------------------------/14-~-~------------14--|
|------------14------14h15-------------------------|
|--------------------------------------------------|
|                                                  |
|--------------------------------------------------|
|--------------------------------------------------|
|-------2----------------------2-------------------|
|-------2----------------------2-------------------|
|-------2----------------------2-------------------|
|--2----0-----------0--1--2----0-------------0--1--|

|-----------------14-15/19---------17--15--|--15h17p15p14----14h15p14------|
|--------14-15-17--------------------------|---------------------------15--|
|--14h16-----------------------------------|-------------------------------|
|------------------------------------------|-------------------------------|
|------------------------------------------|-------------------------------|
|------------------------------------------|-------------------------------|
|
|------------------------------------------|-------------------------------|
|------------------------------------------|-------------------------------|
|-------2------------2--------2----2-------|-------------------------------|
|-------2------------2--------2----2-------|-------------------------------|
|-------2------------2--------2----2-------|---------0---------------------|
|-------0------------0--------0----0--0-1--|--2------------------------2-1-|

|----------------|-----------------||--17------------|--(17)-----------|
|----------------|-----------------||----------------|-----------------|
|----------------|-----------------||----------------|-----------------||
|----------------|-----------------||----------------|-----------------|
|----------------|-----------------||----------------|-----------------|
|-----1----------|-----1-----------||--2---------0-1-|--2----------0-1-|

|------------------------|----------------------------|-----------------------------
|----0----0----0--0------|----------------------------|-----------------------------
|----1----1----1--1------|------------------------2-3-|-----------------------------
|----2----2----2--2------|-2----------0--2--3-3-5-----|---------------------4\3-----
|----2----2----2--2------|-2--0h1p0-3-----------------|-2--2-2-2--2-2-5\4---2\1---3\
|-2--0----0----0--0--0-2-|-0--------------------------|-0--0-0-0--0-0-3\2-0-----0-5\
                   
|----------------------------|-------------------------------|
|----------------------------|-------------------------------|
|------------------------2---|-------------------------------|
|-2----------0--2--3-3-5---3-|---------------------4\3-------|
|-2--0h1p0-3-----------------|-3--3-3-3--3---5\4---2\1---3\1-|
|-0--------------------------|-1--1-1-1--1-0-3\2-0-----0-5\3-|  
               
|------------------------------------|------------------------------------|
|------------------------------------|------------------------------------|
|--3p2p0-2-3-2-0---------------------|-3p2p0-2-3-5-3-3p2p0----------------|
|--3p2p0-2-3-2-0-3p2p0---------------|-3p2p0-2-3-5-3-3p2p0----------------|
|----------------3p2p0-2--2-2-2--2-2-|---------------------3--3-3-3--3----|
|----------------------0--0-0-0--0-0-|---------------------1--1-1-1--1-0--|

|-----------------------------------|
|-----------------------------------|
|-3p2p0-2-3-5-3-3p2p0---------------|
|-3p2p0-2-3-5-3-3p2p0----3-----3----|
|------------------------3-----3----|
|---------------------1--1-1-1-1----|   

(tab/)
Comments